  0
SECTION
  2
HEADER
  9
$ACADVER
  1
AC1015
  9
$ACADMAINTVER
 70
     6
  9
$DWGCODEPAGE
  3
ANSI_932
  9
$INSBASE
 10
0.0
 20
0.0
 30
0.0
  9
$EXTMIN
 10
0.0
 20
0.0
 30
0.0
  9
$EXTMAX
 10
210.0
 20
297.0
 30
0.0
  9
$LIMMIN
 10
0.0
 20
0.0
  9
$LIMMAX
 10
210.0
 20
297.0
  9
$ORTHOMODE
 70
     0
  9
$REGENMODE
 70
     1
  9
$FILLMODE
 70
     1
  9
$QTEXTMODE
 70
     0
  9
$MIRRTEXT
 70
     1
  9
$LTSCALE
 40
1.0
  9
$ATTMODE
 70
     1
  9
$TEXTSIZE
 40
0.2
  9
$TRACEWID
 40
1.0
  9
$TEXTSTYLE
  7
FX_VECTOR
  9
$CLAYER
  8
0
  9
$CELTYPE
  6
ByLayer
  9
$CECOLOR
 62
   256
  9
$CELTSCALE
 40
1.0
  9
$DISPSILH
 70
     0
  9
$DIMSCALE
 40
1.0
  9
$DIMASZ
 40
2.5
  9
$DIMEXO
 40
1.0
  9
$DIMDLI
 40
7.5
  9
$DIMRND
 40
0.0
  9
$DIMDLE
 40
6.0
  9
$DIMEXE
 40
1.0
  9
$DIMTP
 40
0.0
  9
$DIMTM
 40
0.0
  9
$DIMTXT
 40
3.5
  9
$DIMCEN
 40
2.5
  9
$DIMTSZ
 40
0.0
  9
$DIMTOL
 70
     0
  9
$DIMLIM
 70
     0
  9
$DIMTIH
 70
     0
  9
$DIMTOH
 70
     0
  9
$DIMSE1
 70
     0
  9
$DIMSE2
 70
     0
  9
$DIMTAD
 70
     1
  9
$DIMZIN
 70
     8
  9
$DIMBLK
  1

  9
$DIMASO
 70
     1
  9
$DIMSHO
 70
     1
  9
$DIMPOST
  1

  9
$DIMAPOST
  1

  9
$DIMALT
 70
     0
  9
$DIMALTD
 70
     3
  9
$DIMALTF
 40
0.03937
  9
$DIMLFAC
 40
1.0
  9
$DIMTOFL
 70
     1
  9
$DIMTVP
 40
0.0
  9
$DIMTIX
 70
     0
  9
$DIMSOXD
 70
     0
  9
$DIMSAH
 70
     1
  9
$DIMBLK1
  1
FXTIP_ARROW_S
  9
$DIMBLK2
  1
FXTIP_ARROW_E
  9
$DIMSTYLE
  2
FXDIMINFO
  9
$DIMCLRD
 70
     7
  9
$DIMCLRE
 70
     7
  9
$DIMCLRT
 70
     7
  9
$DIMTFAC
 40
1.0
  9
$DIMGAP
 40
1.0
  9
$DIMJUST
 70
     0
  9
$DIMSD1
 70
     0
  9
$DIMSD2
 70
     0
  9
$DIMTOLJ
 70
     1
  9
$DIMTZIN
 70
     8
  9
$DIMALTZ
 70
     0
  9
$DIMALTTZ
 70
     0
  9
$DIMUPT
 70
     0
  9
$DIMDEC
 70
     2
  9
$DIMTDEC
 70
     2
  9
$DIMALTU
 70
     2
  9
$DIMALTTD
 70
     3
  9
$DIMTXSTY
  7
FX_VECTOR
  9
$DIMAUNIT
 70
     0
  9
$DIMADEC
 70
     2
  9
$DIMALTRND
 40
0.0
  9
$DIMAZIN
 70
     2
  9
$DIMDSEP
 70
    46
  9
$DIMATFIT
 70
     3
  9
$DIMFRAC
 70
     0
  9
$DIMLDRBLK
  1
FXTIP_ARROW_S
  9
$DIMLUNIT
 70
     2
  9
$DIMLWD
 70
    -2
  9
$DIMLWE
 70
    -2
  9
$DIMTMOVE
 70
     0
  9
$LUNITS
 70
     2
  9
$LUPREC
 70
     4
  9
$SKETCHINC
 40
1.0
  9
$FILLETRAD
 40
10.0
  9
$AUNITS
 70
     0
  9
$AUPREC
 70
     0
  9
$MENU
  1
.
  9
$ELEVATION
 40
0.0
  9
$PELEVATION
 40
0.0
  9
$THICKNESS
 40
0.0
  9
$LIMCHECK
 70
     0
  9
$CHAMFERA
 40
10.0
  9
$CHAMFERB
 40
10.0
  9
$CHAMFERC
 40
20.0
  9
$CHAMFERD
 40
0.0
  9
$SKPOLY
 70
     0
  9
$TDCREATE
 40
2456245.789923356
  9
$TDUCREATE
 40
2456245.414923356
  9
$TDUPDATE
 40
2456245.789924803
  9
$TDUUPDATE
 40
2456245.414924803
  9
$TDINDWG
 40
0.0000000116
  9
$TDUSRTIMER
 40
0.0000000116
  9
$USRTIMER
 70
     1
  9
$ANGBASE
 50
0.0
  9
$ANGDIR
 70
     0
  9
$PDMODE
 70
     0
  9
$PDSIZE
 40
0.0
  9
$PLINEWID
 40
0.0
  9
$SPLFRAME
 70
     0
  9
$SPLINETYPE
 70
     6
  9
$SPLINESEGS
 70
     8
  9
$HANDSEED
  5
248
  9
$SURFTAB1
 70
     6
  9
$SURFTAB2
 70
     6
  9
$SURFTYPE
 70
     6
  9
$SURFU
 70
     6
  9
$SURFV
 70
     6
  9
$UCSBASE
  2

  9
$UCSNAME
  2

  9
$UCSORG
 10
0.0
 20
0.0
 30
0.0
  9
$UCSXDIR
 10
1.0
 20
0.0
 30
0.0
  9
$UCSYDIR
 10
0.0
 20
1.0
 30
0.0
  9
$UCSORTHOREF
  2

  9
$UCSORTHOVIEW
 70
     0
  9
$UCSORGTOP
 10
0.0
 20
0.0
 30
0.0
  9
$UCSORGBOTTOM
 10
0.0
 20
0.0
 30
0.0
  9
$UCSORGLEFT
 10
0.0
 20
0.0
 30
0.0
  9
$UCSORGRIGHT
 10
0.0
 20
0.0
 30
0.0
  9
$UCSORGFRONT
 10
0.0
 20
0.0
 30
0.0
  9
$UCSORGBACK
 10
0.0
 20
0.0
 30
0.0
  9
$PUCSBASE
  2

  9
$PUCSNAME
  2

  9
$PUCSORG
 10
0.0
 20
0.0
 30
0.0
  9
$PUCSXDIR
 10
1.0
 20
0.0
 30
0.0
  9
$PUCSYDIR
 10
0.0
 20
1.0
 30
0.0
  9
$PUCSORTHOREF
  2

  9
$PUCSORTHOVIEW
 70
     0
  9
$PUCSORGTOP
 10
0.0
 20
0.0
 30
0.0
  9
$PUCSORGBOTTOM
 10
0.0
 20
0.0
 30
0.0
  9
$PUCSORGLEFT
 10
0.0
 20
0.0
 30
0.0
  9
$PUCSORGRIGHT
 10
0.0
 20
0.0
 30
0.0
  9
$PUCSORGFRONT
 10
0.0
 20
0.0
 30
0.0
  9
$PUCSORGBACK
 10
0.0
 20
0.0
 30
0.0
  9
$USERI1
 70
     0
  9
$USERI2
 70
     0
  9
$USERI3
 70
     0
  9
$USERI4
 70
     0
  9
$USERI5
 70
     0
  9
$USERR1
 40
0.0
  9
$USERR2
 40
0.0
  9
$USERR3
 40
0.0
  9
$USERR4
 40
0.0
  9
$USERR5
 40
0.0
  9
$WORLDVIEW
 70
     1
  9
$SHADEDGE
 70
     3
  9
$SHADEDIF
 70
    70
  9
$TILEMODE
 70
     1
  9
$MAXACTVP
 70
    64
  9
$PINSBASE
 10
0.0
 20
0.0
 30
0.0
  9
$PLIMCHECK
 70
     0
  9
$PEXTMIN
 10
1.000000000000000E+20
 20
1.000000000000000E+20
 30
1.000000000000000E+20
  9
$PEXTMAX
 10
-1.000000000000000E+20
 20
-1.000000000000000E+20
 30
-1.000000000000000E+20
  9
$PLIMMIN
 10
0.0
 20
0.0
  9
$PLIMMAX
 10
420.0
 20
297.0
  9
$UNITMODE
 70
     0
  9
$VISRETAIN
 70
     1
  9
$PLINEGEN
 70
     0
  9
$PSLTSCALE
 70
     1
  9
$TREEDEPTH
 70
  3020
  9
$CMLSTYLE
  2
Standard
  9
$CMLJUST
 70
     0
  9
$CMLSCALE
 40
20.0
  9
$PROXYGRAPHICS
 70
     1
  9
$MEASUREMENT
 70
     1
  9
$CELWEIGHT
370
    -1
  9
$ENDCAPS
280
     0
  9
$JOINSTYLE
280
     0
  9
$LWDISPLAY
290
     0
  9
$INSUNITS
 70
     4
  9
$HYPERLINKBASE
  1

  9
$STYLESHEET
  1

  9
$XEDIT
290
     1
  9
$CEPSNTYPE
380
     0
  9
$PSTYLEMODE
290
     1
  9
$FINGERPRINTGUID
  2
{BBA497A5-A141-4884-A422-449595C6C3B9}
  9
$VERSIONGUID
  2
{FAEB1C32-E019-11D5-929B-00C0DF256EC4}
  9
$EXTNAMES
290
     1
  9
$PSVPSCALE
 40
0.0
  9
$OLESTARTUP
290
     0
  0
ENDSEC
  0
SECTION
  2
CLASSES
  0
CLASS
  1
ACDBDICTIONARYWDFLT
  2
AcDbDictionaryWithDefault
  3
ObjectDBX Classes
 90
        0
280
     0
281
     0
  0
CLASS
  1
VISUALSTYLE
  2
AcDbVisualStyle
  3
ObjectDBX Classes
 90
     4095
280
     0
281
     0
  0
CLASS
  1
MATERIAL
  2
AcDbMaterial
  3
ObjectDBX Classes
 90
     1153
280
     0
281
     0
  0
CLASS
  1
DICTIONARYVAR
  2
AcDbDictionaryVar
  3
ObjectDBX Classes
 90
        0
280
     0
281
     0
  0
CLASS
  1
ACDBPLACEHOLDER
  2
AcDbPlaceHolder
  3
ObjectDBX Classes
 90
        0
280
     0
281
     0
  0
CLASS
  1
LAYOUT
  2
AcDbLayout
  3
ObjectDBX Classes
 90
        0
280
     0
281
     0
  0
ENDSEC
  0
SECTION
  2
TABLES
  0
TABLE
  2
VPORT
  5
8
330
0
100
AcDbSymbolTable
 70
     1
  0
VPORT
  5
29
330
8
100
AcDbSymbolTableRecord
100
AcDbViewportTableRecord
  2
*Active
 70
     0
 10
0.0
 20
0.0
 11
1.0
 21
1.0
 12
105.0
 22
148.5
 13
0.0
 23
0.0
 14
10.0
 24
10.0
 15
10.0
 25
10.0
 16
0.0
 26
0.0
 36
1.0
 17
0.0
 27
0.0
 37
0.0
 40
297.0
 41
0.7070707070707071
 42
50.0
 43
0.0
 44
0.0
 50
0.0
 51
0.0
 71
     0
 72
   100
 73
     1
 74
     3
 75
     0
 76
     0
 77
     0
 78
     0
281
     0
 65
     1
110
0.0
120
0.0
130
0.0
111
1.0
121
0.0
131
0.0
112
0.0
122
1.0
132
0.0
 79
     0
146
0.0
  0
ENDTAB
  0
TABLE
  2
LTYPE
  5
5
330
0
100
AcDbSymbolTable
 70
     7
  0
LTYPE
  5
14
330
5
100
AcDbSymbolTableRecord
100
AcDbLinetypeTableRecord
  2
ByBlock
 70
     0
  3

 72
    65
 73
     0
 40
0.0
  0
LTYPE
  5
15
330
5
100
AcDbSymbolTableRecord
100
AcDbLinetypeTableRecord
  2
ByLayer
 70
     0
  3

 72
    65
 73
     0
 40
0.0
  0
LTYPE
  5
16
330
5
100
AcDbSymbolTableRecord
100
AcDbLinetypeTableRecord
  2
Continuous
 70
     0
  3
Continuous ___________________________________
 72
    65
 73
     0
 40
0.0
  0
LTYPE
  5
3F
330
5
100
AcDbSymbolTableRecord
100
AcDbLinetypeTableRecord
  2
DASHDOT
 70
     0
  3
Dash dot __ . __ . __ . __ . __ . __ . __ . __
 72
    65
 73
     4
 40
25.3
 49
12.7
 74
     0
 49
-6.3
 74
     0
 49
0.0
 74
     0
 49
-6.3
 74
     0
  0
LTYPE
  5
AF
330
5
100
AcDbSymbolTableRecord
100
AcDbLinetypeTableRecord
  2
極太
 70
     0
  3

 72
    65
 73
     0
 40
0.0
  0
LTYPE
  5
137
330
5
100
AcDbSymbolTableRecord
100
AcDbLinetypeTableRecord
  2
HIDDEN
 70
     0
  3

 72
    65
 73
     2
 40
1.8
 49
1.2
 74
     0
 49
-0.6
 74
     0
  0
ENDTAB
  0
TABLE
  2
LAYER
  5
2
330
0
100
AcDbSymbolTable
 70
     5
  0
LAYER
  5
10
330
2
100
AcDbSymbolTableRecord
100
AcDbLayerTableRecord
  2
0
 70
     0
 62
     7
  6
Continuous
370
    -3
390
F
  0
LAYER
  5
AE
330
2
100
AcDbSymbolTableRecord
100
AcDbLayerTableRecord
  2
基準ﾚｲﾔｸﾞﾙｰﾌﾟ_01
 70
     0
 62
     7
  6
Continuous
370
    -3
390
F
  0
LAYER
  5
203
330
2
100
AcDbSymbolTableRecord
100
AcDbLayerTableRecord
  2
GR1_01
 70
     0
 62
     7
  6
Continuous
370
    -3
390
F
  0
ENDTAB
  0
TABLE
  2
STYLE
  5
3
330
0
100
AcDbSymbolTable
 70
     3
  0
STYLE
  5
11
330
3
100
AcDbSymbolTableRecord
100
AcDbTextStyleTableRecord
  2
Standard
 70
     0
 40
0.0
 41
1.0
 50
0.0
 71
     0
 42
2.5
  3
txt
  4

  0
STYLE
  5
45
330
3
100
AcDbSymbolTableRecord
100
AcDbTextStyleTableRecord
  2
FX_VECTOR
 70
     0
 40
0.0
 41
1.0
 50
0.0
 71
     0
 42
0.2
  3
MONOTXT.SHX
  4
BigFont.shx
  0
STYLE
  5
AD
330
3
100
AcDbSymbolTableRecord
100
AcDbTextStyleTableRecord
  2
DEFAULT
 70
     0
 40
0.0
 41
1.0
 50
0.0
 71
     0
 42
0.2
  3

  4

1001
ACAD
1000
ＭＳ ゴシック
1071
    32817
  0
ENDTAB
  0
TABLE
  2
VIEW
  5
6
330
0
100
AcDbSymbolTable
 70
     0
  0
ENDTAB
  0
TABLE
  2
UCS
  5
7
330
0
100
AcDbSymbolTable
 70
     0
  0
ENDTAB
  0
TABLE
  2
APPID
  5
9
330
0
100
AcDbSymbolTable
 70
     1
  0
APPID
  5
12
330
9
100
AcDbSymbolTableRecord
100
AcDbRegAppTableRecord
  2
ACAD
 70
     0
  0
ENDTAB
  0
TABLE
  2
DIMSTYLE
  5
A
330
0
100
AcDbSymbolTable
 70
     2
100
AcDbDimStyleTable
  0
DIMSTYLE
105
27
330
A
100
AcDbSymbolTableRecord
100
AcDbDimStyleTableRecord
  2
ISO-25
 70
     0
 41
2.5
 42
0.625
 43
3.75
 44
1.25
 73
     0
 74
     0
 77
     1
 78
     8
140
2.5
141
2.5
143
0.03937007874016
147
0.625
171
     3
172
     1
178
     0
271
     2
272
     2
274
     3
278
    44
283
     0
284
     8
340
11
  0
DIMSTYLE
105
AC
330
A
100
AcDbSymbolTableRecord
100
AcDbDimStyleTableRecord
  2
FXDIMINFO
 70
     0
 41
2.5
 42
1.0
 43
7.5
 44
1.0
 46
6.0
 73
     0
 74
     0
 77
     1
 78
     8
 79
     2
140
3.5
141
2.5
143
0.03937
147
1.0
171
     3
172
     1
173
     1
176
     7
177
     7
271
     2
178
     7
179
     2
271
     2
272
     2
274
     3
284
     8
340
45
341
46
343
46
344
4C
  0
ENDTAB
  0
TABLE
  2
BLOCK_RECORD
  5
1
330
0
100
AcDbSymbolTable
 70
    24
  0
BLOCK_RECORD
  5
1F
330
1
100
AcDbSymbolTableRecord
100
AcDbBlockTableRecord
  2
*Model_Space
340
22
  0
BLOCK_RECORD
  5
1B
330
1
100
AcDbSymbolTableRecord
100
AcDbBlockTableRecord
  2
*Paper_Space
340
1E
  0
BLOCK_RECORD
  5
23
330
1
100
AcDbSymbolTableRecord
100
AcDbBlockTableRecord
  2
*Paper_Space0
340
26
  0
BLOCK_RECORD
  5
46
330
1
100
AcDbSymbolTableRecord
100
AcDbBlockTableRecord
  2
FXTIP_ARROW_S
340
0
  0
BLOCK_RECORD
  5
4C
330
1
100
AcDbSymbolTableRecord
100
AcDbBlockTableRecord
  2
FXTIP_ARROW_E
340
0
  0
BLOCK_RECORD
  5
52
330
1
100
AcDbSymbolTableRecord
100
AcDbBlockTableRecord
  2
FXTIP_BLACKDOT_S
340
0
  0
BLOCK_RECORD
  5
58
330
1
100
AcDbSymbolTableRecord
100
AcDbBlockTableRecord
  2
FXTIP_BLACKDOT_E
340
0
  0
BLOCK_RECORD
  5
5E
330
1
100
AcDbSymbolTableRecord
100
AcDbBlockTableRecord
  2
FXTIP_TRIANGLE_S
340
0
  0
BLOCK_RECORD
  5
65
330
1
100
AcDbSymbolTableRecord
100
AcDbBlockTableRecord
  2
FXTIP_TRIANGLE_E
340
0
  0
BLOCK_RECORD
  5
6C
330
1
100
AcDbSymbolTableRecord
100
AcDbBlockTableRecord
  2
FXTIP_ARCHITECT_S
340
0
  0
BLOCK_RECORD
  5
72
330
1
100
AcDbSymbolTableRecord
100
AcDbBlockTableRecord
  2
FXTIP_ARCHITECT_E
340
0
  0
BLOCK_RECORD
  5
78
330
1
100
AcDbSymbolTableRecord
100
AcDbBlockTableRecord
  2
FXTIP_CIVIL_S
340
0
  0
BLOCK_RECORD
  5
7E
330
1
100
AcDbSymbolTableRecord
100
AcDbBlockTableRecord
  2
FXTIP_CIVIL_E
340
0
  0
BLOCK_RECORD
  5
84
330
1
100
AcDbSymbolTableRecord
100
AcDbBlockTableRecord
  2
FXTIP_WHITEDOT_S
340
0
  0
BLOCK_RECORD
  5
89
330
1
100
AcDbSymbolTableRecord
100
AcDbBlockTableRecord
  2
FXTIP_WHITEDOT_E
340
0
  0
BLOCK_RECORD
  5
8E
330
1
100
AcDbSymbolTableRecord
100
AcDbBlockTableRecord
  2
FXTIP_UPARROW_S
340
0
  0
BLOCK_RECORD
  5
93
330
1
100
AcDbSymbolTableRecord
100
AcDbBlockTableRecord
  2
FXTIP_UPARROW_E
340
0
  0
BLOCK_RECORD
  5
98
330
1
100
AcDbSymbolTableRecord
100
AcDbBlockTableRecord
  2
FXTIP_DOWNARROW_S
340
0
  0
BLOCK_RECORD
  5
9D
330
1
100
AcDbSymbolTableRecord
100
AcDbBlockTableRecord
  2
FXTIP_DOWNARROW_E
340
0
  0
BLOCK_RECORD
  5
A2
330
1
100
AcDbSymbolTableRecord
100
AcDbBlockTableRecord
  2
FXTIP_BLACKTRIANGLE_S
340
0
  0
BLOCK_RECORD
  5
A7
330
1
100
AcDbSymbolTableRecord
100
AcDbBlockTableRecord
  2
FXTIP_BLACKTRIANGLE_E
340
0
  0
BLOCK_RECORD
  5
E6
330
1
100
AcDbSymbolTableRecord
100
AcDbBlockTableRecord
  2
BLKF022
340
0
102
{BLKREFS
331
E9
102
}
  0
BLOCK_RECORD
  5
FA
330
1
100
AcDbSymbolTableRecord
100
AcDbBlockTableRecord
  2
BLKF023
340
0
102
{BLKREFS
331
FD
102
}
  0
BLOCK_RECORD
  5
10E
330
1
100
AcDbSymbolTableRecord
100
AcDbBlockTableRecord
  2
BLKF024
340
0
102
{BLKREFS
331
111
102
}
  0
BLOCK_RECORD
  5
157
330
1
100
AcDbSymbolTableRecord
100
AcDbBlockTableRecord
  2
BLKF025
340
0
102
{BLKREFS
331
15A
102
}
  0
BLOCK_RECORD
  5
1AD
330
1
100
AcDbSymbolTableRecord
100
AcDbBlockTableRecord
  2
BLKF026
340
0
102
{BLKREFS
331
1B0
102
}
  0
ENDTAB
  0
ENDSEC
  0
SECTION
  2
BLOCKS
  0
BLOCK
  5
20
330
1F
100
AcDbEntity
  8
0
100
AcDbBlockBegin
  2
*Model_Space
 70
     0
 10
0.0
 20
0.0
 30
0.0
  3
*Model_Space
  1

  0
ENDBLK
  5
21
330
1F
100
AcDbEntity
  8
0
100
AcDbBlockEnd
  0
BLOCK
  5
1C
330
1B
100
AcDbEntity
 67
     1
  8
0
100
AcDbBlockBegin
  2
*Paper_Space
 70
     0
 10
0.0
 20
0.0
 30
0.0
  3
*Paper_Space
  1

  0
ENDBLK
  5
1D
330
1B
100
AcDbEntity
 67
     1
  8
0
100
AcDbBlockEnd
  0
BLOCK
  5
24
330
23
100
AcDbEntity
  8
0
100
AcDbBlockBegin
  2
*Paper_Space0
 70
     0
 10
0.0
 20
0.0
 30
0.0
  3
*Paper_Space0
  1

  0
ENDBLK
  5
25
330
23
100
AcDbEntity
  8
0
100
AcDbBlockEnd
  0
BLOCK
  5
47
330
46
100
AcDbEntity
  8
0
100
AcDbBlockBegin
  2
FXTIP_ARROW_S
 70
     0
 10
0.0
 20
0.0
 30
0.0
  3
FXTIP_ARROW_S
  1

  0
LINE
  5
49
330
46
100
AcDbEntity
  8
0
  6
Continuous
 62
     0
370
    -2
100
AcDbLine
 10
0.0
 20
0.0
 30
0.0
 11
-1.0
 21
0.0000000000000001
 31
0.0
  0
LINE
  5
4A
330
46
100
AcDbEntity
  8
0
  6
Continuous
 62
     0
370
    -2
100
AcDbLine
 10
0.0
 20
0.0
 30
0.0
 11
-0.9659258262890683
 21
-0.2588190451025206
 31
0.0
  0
LINE
  5
4B
330
46
100
AcDbEntity
  8
0
  6
Continuous
 62
     0
370
    -2
100
AcDbLine
 10
0.0
 20
0.0
 30
0.0
 11
-0.9659258262890683
 21
0.2588190451025209
 31
0.0
  0
ENDBLK
  5
48
330
46
100
AcDbEntity
  8
0
100
AcDbBlockEnd
  0
BLOCK
  5
4D
330
4C
100
AcDbEntity
  8
0
100
AcDbBlockBegin
  2
FXTIP_ARROW_E
 70
     0
 10
0.0
 20
0.0
 30
0.0
  3
FXTIP_ARROW_E
  1

  0
LINE
  5
4F
330
4C
100
AcDbEntity
  8
0
  6
Continuous
 62
     0
370
    -2
100
AcDbLine
 10
0.0
 20
0.0
 30
0.0
 11
-1.0
 21
0.0
 31
0.0
  0
LINE
  5
50
330
4C
100
AcDbEntity
  8
0
  6
Continuous
 62
     0
370
    -2
100
AcDbLine
 10
0.0
 20
0.0
 30
0.0
 11
-0.9659258262890683
 21
0.2588190451025207
 31
0.0
  0
LINE
  5
51
330
4C
100
AcDbEntity
  8
0
  6
Continuous
 62
     0
370
    -2
100
AcDbLine
 10
0.0
 20
0.0
 30
0.0
 11
-0.9659258262890683
 21
-0.2588190451025207
 31
0.0
  0
ENDBLK
  5
4E
330
4C
100
AcDbEntity
  8
0
100
AcDbBlockEnd
  0
BLOCK
  5
53
330
52
100
AcDbEntity
  8
0
100
AcDbBlockBegin
  2
FXTIP_BLACKDOT_S
 70
     0
 10
0.0
 20
0.0
 30
0.0
  3
FXTIP_BLACKDOT_S
  1

  0
LINE
  5
55
330
52
100
AcDbEntity
  8
0
  6
Continuous
 62
     0
370
    -2
100
AcDbLine
 10
0.0
 20
0.0
 30
0.0
 11
-1.0
 21
0.0000000000000001
 31
0.0
  0
LWPOLYLINE
  5
56
330
52
100
AcDbEntity
  8
0
  6
Continuous
 62
     0
370
    -2
100
AcDbPolyline
 90
        2
 70
     1
 10
-0.25
 20
0.0
 40
0.5
 41
0.5
 42
1.0
 10
0.25
 20
0.0
 40
0.5
 41
0.5
 42
1.0
  0
CIRCLE
  5
57
330
52
100
AcDbEntity
  8
0
  6
Continuous
 62
     0
370
    -2
100
AcDbCircle
 10
0.0
 20
0.0
 30
0.0
 40
0.5
  0
ENDBLK
  5
54
330
52
100
AcDbEntity
  8
0
100
AcDbBlockEnd
  0
BLOCK
  5
59
330
58
100
AcDbEntity
  8
0
100
AcDbBlockBegin
  2
FXTIP_BLACKDOT_E
 70
     0
 10
0.0
 20
0.0
 30
0.0
  3
FXTIP_BLACKDOT_E
  1

  0
LINE
  5
5B
330
58
100
AcDbEntity
  8
0
  6
Continuous
 62
     0
370
    -2
100
AcDbLine
 10
0.0
 20
0.0
 30
0.0
 11
-1.0
 21
0.0
 31
0.0
  0
LWPOLYLINE
  5
5C
330
58
100
AcDbEntity
  8
0
  6
Continuous
 62
     0
370
    -2
100
AcDbPolyline
 90
        2
 70
     1
 10
-0.25
 20
0.0
 40
0.5
 41
0.5
 42
1.0
 10
0.25
 20
0.0
 40
0.5
 41
0.5
 42
1.0
  0
CIRCLE
  5
5D
330
58
100
AcDbEntity
  8
0
  6
Continuous
 62
     0
370
    -2
100
AcDbCircle
 10
0.0
 20
0.0
 30
0.0
 40
0.5
  0
ENDBLK
  5
5A
330
58
100
AcDbEntity
  8
0
100
AcDbBlockEnd
  0
BLOCK
  5
5F
330
5E
100
AcDbEntity
  8
0
100
AcDbBlockBegin
  2
FXTIP_TRIANGLE_S
 70
     0
 10
0.0
 20
0.0
 30
0.0
  3
FXTIP_TRIANGLE_S
  1

  0
LINE
  5
61
330
5E
100
AcDbEntity
  8
0
  6
Continuous
 62
     0
370
    -2
100
AcDbLine
 10
0.0
 20
0.0
 30
0.0
 11
-1.0
 21
0.0000000000000001
 31
0.0
  0
LINE
  5
62
330
5E
100
AcDbEntity
  8
0
  6
Continuous
 62
     0
370
    -2
100
AcDbLine
 10
0.0
 20
0.0
 30
0.0
 11
-0.9659258262890683
 21
-0.2588190451025206
 31
0.0
  0
LINE
  5
63
330
5E
100
AcDbEntity
  8
0
  6
Continuous
 62
     0
370
    -2
100
AcDbLine
 10
0.0
 20
0.0
 30
0.0
 11
-0.9659258262890683
 21
0.2588190451025209
 31
0.0
  0
LINE
  5
64
330
5E
100
AcDbEntity
  8
0
  6
Continuous
 62
     0
370
    -2
100
AcDbLine
 10
-0.9659258262890683
 20
-0.2588190451025206
 30
0.0
 11
-0.9659258262890683
 21
0.2588190451025209
 31
0.0
  0
ENDBLK
  5
60
330
5E
100
AcDbEntity
  8
0
100
AcDbBlockEnd
  0
BLOCK
  5
66
330
65
100
AcDbEntity
  8
0
100
AcDbBlockBegin
  2
FXTIP_TRIANGLE_E
 70
     0
 10
0.0
 20
0.0
 30
0.0
  3
FXTIP_TRIANGLE_E
  1

  0
LINE
  5
68
330
65
100
AcDbEntity
  8
0
  6
Continuous
 62
     0
370
    -2
100
AcDbLine
 10
0.0
 20
0.0
 30
0.0
 11
-1.0
 21
0.0
 31
0.0
  0
LINE
  5
69
330
65
100
AcDbEntity
  8
0
  6
Continuous
 62
     0
370
    -2
100
AcDbLine
 10
0.0
 20
0.0
 30
0.0
 11
-0.9659258262890683
 21
0.2588190451025207
 31
0.0
  0
LINE
  5
6A
330
65
100
AcDbEntity
  8
0
  6
Continuous
 62
     0
370
    -2
100
AcDbLine
 10
0.0
 20
0.0
 30
0.0
 11
-0.9659258262890683
 21
-0.2588190451025207
 31
0.0
  0
LINE
  5
6B
330
65
100
AcDbEntity
  8
0
  6
Continuous
 62
     0
370
    -2
100
AcDbLine
 10
-0.9659258262890683
 20
0.2588190451025207
 30
0.0
 11
-0.9659258262890683
 21
-0.2588190451025207
 31
0.0
  0
ENDBLK
  5
67
330
65
100
AcDbEntity
  8
0
100
AcDbBlockEnd
  0
BLOCK
  5
6D
330
6C
100
AcDbEntity
  8
0
100
AcDbBlockBegin
  2
FXTIP_ARCHITECT_S
 70
     0
 10
0.0
 20
0.0
 30
0.0
  3
FXTIP_ARCHITECT_S
  1

  0
LINE
  5
6F
330
6C
100
AcDbEntity
  8
0
  6
Continuous
 62
     0
370
    -2
100
AcDbLine
 10
0.0
 20
0.0
 30
0.0
 11
-1.0
 21
0.0000000000000001
 31
0.0
  0
LINE
  5
70
330
6C
100
AcDbEntity
  8
0
  6
Continuous
 62
     0
370
    -2
100
AcDbLine
 10
0.0
 20
0.0
 30
0.0
 11
-0.7071067811865476
 21
-0.7071067811865474
 31
0.0
  0
LINE
  5
71
330
6C
100
AcDbEntity
  8
0
  6
Continuous
 62
     0
370
    -2
100
AcDbLine
 10
0.0
 20
0.0
 30
0.0
 11
0.7071067811865476
 21
0.7071067811865474
 31
0.0
  0
ENDBLK
  5
6E
330
6C
100
AcDbEntity
  8
0
100
AcDbBlockEnd
  0
BLOCK
  5
73
330
72
100
AcDbEntity
  8
0
100
AcDbBlockBegin
  2
FXTIP_ARCHITECT_E
 70
     0
 10
0.0
 20
0.0
 30
0.0
  3
FXTIP_ARCHITECT_E
  1

  0
LINE
  5
75
330
72
100
AcDbEntity
  8
0
  6
Continuous
 62
     0
370
    -2
100
AcDbLine
 10
0.0
 20
0.0
 30
0.0
 11
-1.0
 21
0.0
 31
0.0
  0
LINE
  5
76
330
72
100
AcDbEntity
  8
0
  6
Continuous
 62
     0
370
    -2
100
AcDbLine
 10
0.0
 20
0.0
 30
0.0
 11
0.7071067811865475
 21
0.7071067811865475
 31
0.0
  0
LINE
  5
77
330
72
100
AcDbEntity
  8
0
  6
Continuous
 62
     0
370
    -2
100
AcDbLine
 10
0.0
 20
0.0
 30
0.0
 11
-0.7071067811865475
 21
-0.7071067811865475
 31
0.0
  0
ENDBLK
  5
74
330
72
100
AcDbEntity
  8
0
100
AcDbBlockEnd
  0
BLOCK
  5
79
330
78
100
AcDbEntity
  8
0
100
AcDbBlockBegin
  2
FXTIP_CIVIL_S
 70
     0
 10
0.0
 20
0.0
 30
0.0
  3
FXTIP_CIVIL_S
  1

  0
LINE
  5
7B
330
78
100
AcDbEntity
  8
0
  6
Continuous
 62
     0
370
    -2
100
AcDbLine
 10
0.0
 20
0.0
 30
0.0
 11
-1.0
 21
0.0000000000000001
 31
0.0
  0
LINE
  5
7C
330
78
100
AcDbEntity
  8
0
  6
Continuous
 62
     0
370
    -2
100
AcDbLine
 10
0.0
 20
-0.1
 30
0.0
 11
-1.0
 21
-0.0999999999999999
 31
0.0
  0
LINE
  5
7D
330
78
100
AcDbEntity
  8
0
  6
Continuous
 62
     0
370
    -2
100
AcDbLine
 10
0.0
 20
-0.2
 30
0.0
 11
-1.0
 21
-0.1999999999999999
 31
0.0
  0
ENDBLK
  5
7A
330
78
100
AcDbEntity
  8
0
100
AcDbBlockEnd
  0
BLOCK
  5
7F
330
7E
100
AcDbEntity
  8
0
100
AcDbBlockBegin
  2
FXTIP_CIVIL_E
 70
     0
 10
0.0
 20
0.0
 30
0.0
  3
FXTIP_CIVIL_E
  1

  0
LINE
  5
81
330
7E
100
AcDbEntity
  8
0
  6
Continuous
 62
     0
370
    -2
100
AcDbLine
 10
0.0
 20
0.0
 30
0.0
 11
-1.0
 21
0.0
 31
0.0
  0
LINE
  5
82
330
7E
100
AcDbEntity
  8
0
  6
Continuous
 62
     0
370
    -2
100
AcDbLine
 10
0.0
 20
0.1
 30
0.0
 11
-1.0
 21
0.1
 31
0.0
  0
LINE
  5
83
330
7E
100
AcDbEntity
  8
0
  6
Continuous
 62
     0
370
    -2
100
AcDbLine
 10
0.0
 20
0.2
 30
0.0
 11
-1.0
 21
0.2
 31
0.0
  0
ENDBLK
  5
80
330
7E
100
AcDbEntity
  8
0
100
AcDbBlockEnd
  0
BLOCK
  5
85
330
84
100
AcDbEntity
  8
0
100
AcDbBlockBegin
  2
FXTIP_WHITEDOT_S
 70
     0
 10
0.0
 20
0.0
 30
0.0
  3
FXTIP_WHITEDOT_S
  1

  0
LINE
  5
87
330
84
100
AcDbEntity
  8
0
  6
Continuous
 62
     0
370
    -2
100
AcDbLine
 10
0.0
 20
0.0
 30
0.0
 11
-1.0
 21
0.0000000000000001
 31
0.0
  0
CIRCLE
  5
88
330
84
100
AcDbEntity
  8
0
  6
Continuous
 62
     0
370
    -2
100
AcDbCircle
 10
0.0
 20
0.0
 30
0.0
 40
0.5
  0
ENDBLK
  5
86
330
84
100
AcDbEntity
  8
0
100
AcDbBlockEnd
  0
BLOCK
  5
8A
330
89
100
AcDbEntity
  8
0
100
AcDbBlockBegin
  2
FXTIP_WHITEDOT_E
 70
     0
 10
0.0
 20
0.0
 30
0.0
  3
FXTIP_WHITEDOT_E
  1

  0
LINE
  5
8C
330
89
100
AcDbEntity
  8
0
  6
Continuous
 62
     0
370
    -2
100
AcDbLine
 10
0.0
 20
0.0
 30
0.0
 11
-1.0
 21
0.0
 31
0.0
  0
CIRCLE
  5
8D
330
89
100
AcDbEntity
  8
0
  6
Continuous
 62
     0
370
    -2
100
AcDbCircle
 10
0.0
 20
0.0
 30
0.0
 40
0.5
  0
ENDBLK
  5
8B
330
89
100
AcDbEntity
  8
0
100
AcDbBlockEnd
  0
BLOCK
  5
8F
330
8E
100
AcDbEntity
  8
0
100
AcDbBlockBegin
  2
FXTIP_UPARROW_S
 70
     0
 10
0.0
 20
0.0
 30
0.0
  3
FXTIP_UPARROW_S
  1

  0
LINE
  5
91
330
8E
100
AcDbEntity
  8
0
  6
Continuous
 62
     0
370
    -2
100
AcDbLine
 10
0.0
 20
0.0
 30
0.0
 11
-1.0
 21
0.0000000000000001
 31
0.0
  0
LINE
  5
92
330
8E
100
AcDbEntity
  8
0
  6
Continuous
 62
     0
370
    -2
100
AcDbLine
 10
0.0
 20
0.0
 30
0.0
 11
-0.9659258262890683
 21
-0.2588190451025206
 31
0.0
  0
ENDBLK
  5
90
330
8E
100
AcDbEntity
  8
0
100
AcDbBlockEnd
  0
BLOCK
  5
94
330
93
100
AcDbEntity
  8
0
100
AcDbBlockBegin
  2
FXTIP_UPARROW_E
 70
     0
 10
0.0
 20
0.0
 30
0.0
  3
FXTIP_UPARROW_E
  1

  0
LINE
  5
96
330
93
100
AcDbEntity
  8
0
  6
Continuous
 62
     0
370
    -2
100
AcDbLine
 10
0.0
 20
0.0
 30
0.0
 11
-1.0
 21
0.0
 31
0.0
  0
LINE
  5
97
330
93
100
AcDbEntity
  8
0
  6
Continuous
 62
     0
370
    -2
100
AcDbLine
 10
0.0
 20
0.0
 30
0.0
 11
-0.9659258262890683
 21
0.2588190451025207
 31
0.0
  0
ENDBLK
  5
95
330
93
100
AcDbEntity
  8
0
100
AcDbBlockEnd
  0
BLOCK
  5
99
330
98
100
AcDbEntity
  8
0
100
AcDbBlockBegin
  2
FXTIP_DOWNARROW_S
 70
     0
 10
0.0
 20
0.0
 30
0.0
  3
FXTIP_DOWNARROW_S
  1

  0
LINE
  5
9B
330
98
100
AcDbEntity
  8
0
  6
Continuous
 62
     0
370
    -2
100
AcDbLine
 10
0.0
 20
0.0
 30
0.0
 11
-1.0
 21
0.0000000000000001
 31
0.0
  0
LINE
  5
9C
330
98
100
AcDbEntity
  8
0
  6
Continuous
 62
     0
370
    -2
100
AcDbLine
 10
0.0
 20
0.0
 30
0.0
 11
-0.9659258262890683
 21
0.2588190451025209
 31
0.0
  0
ENDBLK
  5
9A
330
98
100
AcDbEntity
  8
0
100
AcDbBlockEnd
  0
BLOCK
  5
9E
330
9D
100
AcDbEntity
  8
0
100
AcDbBlockBegin
  2
FXTIP_DOWNARROW_E
 70
     0
 10
0.0
 20
0.0
 30
0.0
  3
FXTIP_DOWNARROW_E
  1

  0
LINE
  5
A0
330
9D
100
AcDbEntity
  8
0
  6
Continuous
 62
     0
370
    -2
100
AcDbLine
 10
0.0
 20
0.0
 30
0.0
 11
-1.0
 21
0.0
 31
0.0
  0
LINE
  5
A1
330
9D
100
AcDbEntity
  8
0
  6
Continuous
 62
     0
370
    -2
100
AcDbLine
 10
0.0
 20
0.0
 30
0.0
 11
-0.9659258262890683
 21
-0.2588190451025207
 31
0.0
  0
ENDBLK
  5
9F
330
9D
100
AcDbEntity
  8
0
100
AcDbBlockEnd
  0
BLOCK
  5
A3
330
A2
100
AcDbEntity
  8
0
100
AcDbBlockBegin
  2
FXTIP_BLACKTRIANGLE_S
 70
     0
 10
0.0
 20
0.0
 30
0.0
  3
FXTIP_BLACKTRIANGLE_S
  1

  0
LINE
  5
A5
330
A2
100
AcDbEntity
  8
0
  6
Continuous
 62
     0
370
    -2
100
AcDbLine
 10
0.0
 20
0.0
 30
0.0
 11
-1.0
 21
0.0000000000000001
 31
0.0
  0
SOLID
  5
A6
330
A2
100
AcDbEntity
  8
0
  6
Continuous
 62
     0
370
    -2
100
AcDbTrace
 10
0.0
 20
0.0
 30
0.0
 11
-0.9659258262890683
 21
-0.2588190451025206
 31
0.0
 12
-0.9659258262890683
 22
0.2588190451025209
 32
0.0
 13
-0.9659258262890683
 23
0.2588190451025209
 33
0.0
  0
ENDBLK
  5
A4
330
A2
100
AcDbEntity
  8
0
100
AcDbBlockEnd
  0
BLOCK
  5
A8
330
A7
100
AcDbEntity
  8
0
100
AcDbBlockBegin
  2
FXTIP_BLACKTRIANGLE_E
 70
     0
 10
0.0
 20
0.0
 30
0.0
  3
FXTIP_BLACKTRIANGLE_E
  1

  0
LINE
  5
AA
330
A7
100
AcDbEntity
  8
0
  6
Continuous
 62
     0
370
    -2
100
AcDbLine
 10
0.0
 20
0.0
 30
0.0
 11
-1.0
 21
0.0
 31
0.0
  0
SOLID
  5
AB
330
A7
100
AcDbEntity
  8
0
  6
Continuous
 62
     0
370
    -2
100
AcDbTrace
 10
0.0
 20
0.0
 30
0.0
 11
-0.9659258262890683
 21
0.2588190451025207
 31
0.0
 12
-0.9659258262890683
 22
-0.2588190451025207
 32
0.0
 13
-0.9659258262890683
 23
-0.2588190451025207
 33
0.0
  0
ENDBLK
  5
A9
330
A7
100
AcDbEntity
  8
0
100
AcDbBlockEnd
  0
BLOCK
  5
E7
330
E6
100
AcDbEntity
  8
0
100
AcDbBlockBegin
  2
BLKF022
 70
     0
 10
0.0
 20
0.0
 30
0.0
  3
BLKF022
  1

  0
LINE
  5
EA
330
E6
100
AcDbEntity
  8
基準ﾚｲﾔｸﾞﾙｰﾌﾟ_01
  6
極太
 62
     3
370
    35
100
AcDbLine
 10
86.73038475780014
 20
166.1
 30
0.0
 11
86.76993811280009
 21
166.3296100594
 31
0.0
  0
LINE
  5
EB
330
E6
100
AcDbEntity
  8
基準ﾚｲﾔｸﾞﾙｰﾌﾟ_01
  6
極太
 62
     3
370
    35
100
AcDbLine
 10
86.76993811280009
 20
166.3296100594
 30
0.0
 11
86.8825765386001
 21
166.5242640686
 31
0.0
  0
LINE
  5
EC
330
E6
100
AcDbEntity
  8
基準ﾚｲﾔｸﾞﾙｰﾌﾟ_01
  6
極太
 62
     3
370
    35
100
AcDbLine
 10
86.8825765386001
 20
166.5242640686
 30
0.0
 11
87.05115185560008
 21
166.6543277194
 31
0.0
  0
LINE
  5
ED
330
E6
100
AcDbEntity
  8
基準ﾚｲﾔｸﾞﾙｰﾌﾟ_01
  6
極太
 62
     3
370
    35
100
AcDbLine
 10
87.05115185560008
 20
166.6543277194
 30
0.0
 11
87.2500000000001
 21
166.7
 31
0.0
  0
LINE
  5
EE
330
E6
100
AcDbEntity
  8
基準ﾚｲﾔｸﾞﾙｰﾌﾟ_01
  6
極太
 62
     3
370
    35
100
AcDbLine
 10
87.2500000000001
 20
166.7
 30
0.0
 11
87.44884814440012
 21
166.6543277194
 31
0.0
  0
LINE
  5
EF
330
E6
100
AcDbEntity
  8
基準ﾚｲﾔｸﾞﾙｰﾌﾟ_01
  6
極太
 62
     3
370
    35
100
AcDbLine
 10
87.44884814440012
 20
166.6543277194
 30
0.0
 11
87.6174234614001
 21
166.5242640686
 31
0.0
  0
LINE
  5
F0
330
E6
100
AcDbEntity
  8
基準ﾚｲﾔｸﾞﾙｰﾌﾟ_01
  6
極太
 62
     3
370
    35
100
AcDbLine
 10
87.6174234614001
 20
166.5242640686
 30
0.0
 11
87.73006188720011
 21
166.3296100594
 31
0.0
  0
LINE
  5
F1
330
E6
100
AcDbEntity
  8
基準ﾚｲﾔｸﾞﾙｰﾌﾟ_01
  6
極太
 62
     3
370
    35
100
AcDbLine
 10
87.73006188720011
 20
166.3296100594
 30
0.0
 11
87.76961524220017
 21
166.1
 31
0.0
  0
LINE
  5
F2
330
E6
100
AcDbEntity
  8
基準ﾚｲﾔｸﾞﾙｰﾌﾟ_01
  6
極太
 62
     3
370
    35
100
AcDbLine
 10
87.76961524220017
 20
166.1
 30
0.0
 11
87.73006188720011
 21
165.8703899406
 31
0.0
  0
LINE
  5
F3
330
E6
100
AcDbEntity
  8
基準ﾚｲﾔｸﾞﾙｰﾌﾟ_01
  6
極太
 62
     3
370
    35
100
AcDbLine
 10
87.73006188720011
 20
165.8703899406
 30
0.0
 11
87.6174234614001
 21
165.6757359312001
 31
0.0
  0
LINE
  5
F4
330
E6
100
AcDbEntity
  8
基準ﾚｲﾔｸﾞﾙｰﾌﾟ_01
  6
極太
 62
     3
370
    35
100
AcDbLine
 10
87.6174234614001
 20
165.6757359312001
 30
0.0
 11
87.44884814440012
 21
165.5456722804
 31
0.0
  0
LINE
  5
F5
330
E6
100
AcDbEntity
  8
基準ﾚｲﾔｸﾞﾙｰﾌﾟ_01
  6
極太
 62
     3
370
    35
100
AcDbLine
 10
87.44884814440012
 20
165.5456722804
 30
0.0
 11
87.2500000000001
 21
165.5
 31
0.0
  0
LINE
  5
F6
330
E6
100
AcDbEntity
  8
基準ﾚｲﾔｸﾞﾙｰﾌﾟ_01
  6
極太
 62
     3
370
    35
100
AcDbLine
 10
87.2500000000001
 20
165.5
 30
0.0
 11
87.05115185560008
 21
165.5456722804
 31
0.0
  0
LINE
  5
F7
330
E6
100
AcDbEntity
  8
基準ﾚｲﾔｸﾞﾙｰﾌﾟ_01
  6
極太
 62
     3
370
    35
100
AcDbLine
 10
87.05115185560008
 20
165.5456722804
 30
0.0
 11
86.8825765386001
 21
165.6757359312001
 31
0.0
  0
LINE
  5
F8
330
E6
100
AcDbEntity
  8
基準ﾚｲﾔｸﾞﾙｰﾌﾟ_01
  6
極太
 62
     3
370
    35
100
AcDbLine
 10
86.8825765386001
 20
165.6757359312001
 30
0.0
 11
86.76993811280009
 21
165.8703899406
 31
0.0
  0
LINE
  5
F9
330
E6
100
AcDbEntity
  8
基準ﾚｲﾔｸﾞﾙｰﾌﾟ_01
  6
極太
 62
     3
370
    35
100
AcDbLine
 10
86.76993811280009
 20
165.8703899406
 30
0.0
 11
86.73038475780014
 21
166.1
 31
0.0
  0
ENDBLK
  5
E8
330
E6
100
AcDbEntity
  8
0
100
AcDbBlockEnd
  0
BLOCK
  5
FB
330
FA
100
AcDbEntity
  8
0
100
AcDbBlockBegin
  2
BLKF023
 70
     0
 10
0.0
 20
0.0
 30
0.0
  3
BLKF023
  1

  0
LINE
  5
FE
330
FA
100
AcDbEntity
  8
基準ﾚｲﾔｸﾞﾙｰﾌﾟ_01
  6
極太
 62
     3
370
    35
100
AcDbLine
 10
86.73038475780011
 20
167.6
 30
0.0
 11
86.76993811280006
 21
167.8296100594
 31
0.0
  0
LINE
  5
FF
330
FA
100
AcDbEntity
  8
基準ﾚｲﾔｸﾞﾙｰﾌﾟ_01
  6
極太
 62
     3
370
    35
100
AcDbLine
 10
86.76993811280006
 20
167.8296100594
 30
0.0
 11
86.88257653860008
 21
168.0242640686
 31
0.0
  0
LINE
  5
100
330
FA
100
AcDbEntity
  8
基準ﾚｲﾔｸﾞﾙｰﾌﾟ_01
  6
極太
 62
     3
370
    35
100
AcDbLine
 10
86.88257653860008
 20
168.0242640686
 30
0.0
 11
87.05115185560005
 21
168.1543277194
 31
0.0
  0
LINE
  5
101
330
FA
100
AcDbEntity
  8
基準ﾚｲﾔｸﾞﾙｰﾌﾟ_01
  6
極太
 62
     3
370
    35
100
AcDbLine
 10
87.05115185560005
 20
168.1543277194
 30
0.0
 11
87.25000000000007
 21
168.2
 31
0.0
  0
LINE
  5
102
330
FA
100
AcDbEntity
  8
基準ﾚｲﾔｸﾞﾙｰﾌﾟ_01
  6
極太
 62
     3
370
    35
100
AcDbLine
 10
87.25000000000007
 20
168.2
 30
0.0
 11
87.44884814440009
 21
168.1543277194
 31
0.0
  0
LINE
  5
103
330
FA
100
AcDbEntity
  8
基準ﾚｲﾔｸﾞﾙｰﾌﾟ_01
  6
極太
 62
     3
370
    35
100
AcDbLine
 10
87.44884814440009
 20
168.1543277194
 30
0.0
 11
87.61742346140007
 21
168.0242640686
 31
0.0
  0
LINE
  5
104
330
FA
100
AcDbEntity
  8
基準ﾚｲﾔｸﾞﾙｰﾌﾟ_01
  6
極太
 62
     3
370
    35
100
AcDbLine
 10
87.61742346140007
 20
168.0242640686
 30
0.0
 11
87.73006188720008
 21
167.8296100594
 31
0.0
  0
LINE
  5
105
330
FA
100
AcDbEntity
  8
基準ﾚｲﾔｸﾞﾙｰﾌﾟ_01
  6
極太
 62
     3
370
    35
100
AcDbLine
 10
87.73006188720008
 20
167.8296100594
 30
0.0
 11
87.76961524220015
 21
167.6
 31
0.0
  0
LINE
  5
106
330
FA
100
AcDbEntity
  8
基準ﾚｲﾔｸﾞﾙｰﾌﾟ_01
  6
極太
 62
     3
370
    35
100
AcDbLine
 10
87.76961524220015
 20
167.6
 30
0.0
 11
87.73006188720011
 21
167.3703899406
 31
0.0
  0
LINE
  5
107
330
FA
100
AcDbEntity
  8
基準ﾚｲﾔｸﾞﾙｰﾌﾟ_01
  6
極太
 62
     3
370
    35
100
AcDbLine
 10
87.73006188720011
 20
167.3703899406
 30
0.0
 11
87.6174234614001
 21
167.1757359312001
 31
0.0
  0
LINE
  5
108
330
FA
100
AcDbEntity
  8
基準ﾚｲﾔｸﾞﾙｰﾌﾟ_01
  6
極太
 62
     3
370
    35
100
AcDbLine
 10
87.6174234614001
 20
167.1757359312001
 30
0.0
 11
87.44884814440012
 21
167.0456722804
 31
0.0
  0
LINE
  5
109
330
FA
100
AcDbEntity
  8
基準ﾚｲﾔｸﾞﾙｰﾌﾟ_01
  6
極太
 62
     3
370
    35
100
AcDbLine
 10
87.44884814440012
 20
167.0456722804
 30
0.0
 11
87.2500000000001
 21
167.0
 31
0.0
  0
LINE
  5
10A
330
FA
100
AcDbEntity
  8
基準ﾚｲﾔｸﾞﾙｰﾌﾟ_01
  6
極太
 62
     3
370
    35
100
AcDbLine
 10
87.2500000000001
 20
167.0
 30
0.0
 11
87.05115185560008
 21
167.0456722804
 31
0.0
  0
LINE
  5
10B
330
FA
100
AcDbEntity
  8
基準ﾚｲﾔｸﾞﾙｰﾌﾟ_01
  6
極太
 62
     3
370
    35
100
AcDbLine
 10
87.05115185560008
 20
167.0456722804
 30
0.0
 11
86.8825765386001
 21
167.1757359312001
 31
0.0
  0
LINE
  5
10C
330
FA
100
AcDbEntity
  8
基準ﾚｲﾔｸﾞﾙｰﾌﾟ_01
  6
極太
 62
     3
370
    35
100
AcDbLine
 10
86.8825765386001
 20
167.1757359312001
 30
0.0
 11
86.76993811280009
 21
167.3703899406
 31
0.0
  0
LINE
  5
10D
330
FA
100
AcDbEntity
  8
基準ﾚｲﾔｸﾞﾙｰﾌﾟ_01
  6
極太
 62
     3
370
    35
100
AcDbLine
 10
86.76993811280009
 20
167.3703899406
 30
0.0
 11
86.73038475780011
 21
167.6
 31
0.0
  0
ENDBLK
  5
FC
330
FA
100
AcDbEntity
  8
0
100
AcDbBlockEnd
  0
BLOCK
  5
10F
330
10E
100
AcDbEntity
  8
0
100
AcDbBlockBegin
  2
BLKF024
 70
     0
 10
0.0
 20
0.0
 30
0.0
  3
BLKF024
  1

  0
LINE
  5
112
330
10E
100
AcDbEntity
  8
基準ﾚｲﾔｸﾞﾙｰﾌﾟ_01
  6
極太
 62
     3
370
    35
100
AcDbLine
 10
86.73038475780011
 20
169.1
 30
0.0
 11
86.76993811280006
 21
169.3296100594
 31
0.0
  0
LINE
  5
113
330
10E
100
AcDbEntity
  8
基準ﾚｲﾔｸﾞﾙｰﾌﾟ_01
  6
極太
 62
     3
370
    35
100
AcDbLine
 10
86.76993811280006
 20
169.3296100594
 30
0.0
 11
86.88257653860008
 21
169.5242640686
 31
0.0
  0
LINE
  5
114
330
10E
100
AcDbEntity
  8
基準ﾚｲﾔｸﾞﾙｰﾌﾟ_01
  6
極太
 62
     3
370
    35
100
AcDbLine
 10
86.88257653860008
 20
169.5242640686
 30
0.0
 11
87.05115185560005
 21
169.6543277194
 31
0.0
  0
LINE
  5
115
330
10E
100
AcDbEntity
  8
基準ﾚｲﾔｸﾞﾙｰﾌﾟ_01
  6
極太
 62
     3
370
    35
100
AcDbLine
 10
87.05115185560005
 20
169.6543277194
 30
0.0
 11
87.25000000000007
 21
169.7
 31
0.0
  0
LINE
  5
116
330
10E
100
AcDbEntity
  8
基準ﾚｲﾔｸﾞﾙｰﾌﾟ_01
  6
極太
 62
     3
370
    35
100
AcDbLine
 10
87.25000000000007
 20
169.7
 30
0.0
 11
87.44884814440009
 21
169.6543277194
 31
0.0
  0
LINE
  5
117
330
10E
100
AcDbEntity
  8
基準ﾚｲﾔｸﾞﾙｰﾌﾟ_01
  6
極太
 62
     3
370
    35
100
AcDbLine
 10
87.44884814440009
 20
169.6543277194
 30
0.0
 11
87.61742346140007
 21
169.5242640686
 31
0.0
  0
LINE
  5
118
330
10E
100
AcDbEntity
  8
基準ﾚｲﾔｸﾞﾙｰﾌﾟ_01
  6
極太
 62
     3
370
    35
100
AcDbLine
 10
87.61742346140007
 20
169.5242640686
 30
0.0
 11
87.73006188720008
 21
169.3296100594
 31
0.0
  0
LINE
  5
119
330
10E
100
AcDbEntity
  8
基準ﾚｲﾔｸﾞﾙｰﾌﾟ_01
  6
極太
 62
     3
370
    35
100
AcDbLine
 10
87.73006188720008
 20
169.3296100594
 30
0.0
 11
87.76961524220015
 21
169.1
 31
0.0
  0
LINE
  5
11A
330
10E
100
AcDbEntity
  8
基準ﾚｲﾔｸﾞﾙｰﾌﾟ_01
  6
極太
 62
     3
370
    35
100
AcDbLine
 10
87.76961524220015
 20
169.1
 30
0.0
 11
87.73006188720008
 21
168.8703899406
 31
0.0
  0
LINE
  5
11B
330
10E
100
AcDbEntity
  8
基準ﾚｲﾔｸﾞﾙｰﾌﾟ_01
  6
極太
 62
     3
370
    35
100
AcDbLine
 10
87.73006188720008
 20
168.8703899406
 30
0.0
 11
87.61742346140007
 21
168.6757359312001
 31
0.0
  0
LINE
  5
11C
330
10E
100
AcDbEntity
  8
基準ﾚｲﾔｸﾞﾙｰﾌﾟ_01
  6
極太
 62
     3
370
    35
100
AcDbLine
 10
87.61742346140007
 20
168.6757359312001
 30
0.0
 11
87.44884814440009
 21
168.5456722804
 31
0.0
  0
LINE
  5
11D
330
10E
100
AcDbEntity
  8
基準ﾚｲﾔｸﾞﾙｰﾌﾟ_01
  6
極太
 62
     3
370
    35
100
AcDbLine
 10
87.44884814440009
 20
168.5456722804
 30
0.0
 11
87.25000000000007
 21
168.5
 31
0.0
  0
LINE
  5
11E
330
10E
100
AcDbEntity
  8
基準ﾚｲﾔｸﾞﾙｰﾌﾟ_01
  6
極太
 62
     3
370
    35
100
AcDbLine
 10
87.25000000000007
 20
168.5
 30
0.0
 11
87.05115185560005
 21
168.5456722804
 31
0.0
  0
LINE
  5
11F
330
10E
100
AcDbEntity
  8
基準ﾚｲﾔｸﾞﾙｰﾌﾟ_01
  6
極太
 62
     3
370
    35
100
AcDbLine
 10
87.05115185560005
 20
168.5456722804
 30
0.0
 11
86.88257653860008
 21
168.6757359312001
 31
0.0
  0
LINE
  5
120
330
10E
100
AcDbEntity
  8
基準ﾚｲﾔｸﾞﾙｰﾌﾟ_01
  6
極太
 62
     3
370
    35
100
AcDbLine
 10
86.88257653860008
 20
168.6757359312001
 30
0.0
 11
86.76993811280006
 21
168.8703899406
 31
0.0
  0
LINE
  5
121
330
10E
100
AcDbEntity
  8
基準ﾚｲﾔｸﾞﾙｰﾌﾟ_01
  6
極太
 62
     3
370
    35
100
AcDbLine
 10
86.76993811280006
 20
168.8703899406
 30
0.0
 11
86.73038475780011
 21
169.1
 31
0.0
  0
ENDBLK
  5
110
330
10E
100
AcDbEntity
  8
0
100
AcDbBlockEnd
  0
BLOCK
  5
158
330
157
100
AcDbEntity
  8
0
100
AcDbBlockBegin
  2
BLKF025
 70
     0
 10
0.0
 20
0.0
 30
0.0
  3
BLKF025
  1

  0
LINE
  5
15B
330
157
100
AcDbEntity
  8
基準ﾚｲﾔｸﾞﾙｰﾌﾟ_01
  6
極太
 62
     3
370
    35
100
AcDbLine
 10
101.3786299776299
 20
121.723175853831
 30
0.0
 11
101.4782606209116
 21
121.6398865018236
 31
0.0
  0
LINE
  5
15C
330
157
100
AcDbEntity
  8
基準ﾚｲﾔｸﾞﾙｰﾌﾟ_01
  6
極太
 62
     3
370
    35
100
AcDbLine
 10
101.4782606209116
 20
121.6398865018236
 30
0.0
 11
101.6728248806695
 21
121.4900337763919
 31
0.0
  0
LINE
  5
15D
330
157
100
AcDbEntity
  8
基準ﾚｲﾔｸﾞﾙｰﾌﾟ_01
  6
極太
 62
     3
370
    35
100
AcDbLine
 10
101.6728248806695
 20
121.4900337763919
 30
0.0
 11
101.8619086507178
 21
121.3614440574538
 31
0.0
  0
LINE
  5
15E
330
157
100
AcDbEntity
  8
基準ﾚｲﾔｸﾞﾙｰﾌﾟ_01
  6
極太
 62
     3
370
    35
100
AcDbLine
 10
101.8619086507178
 20
121.3614440574538
 30
0.0
 11
101.9546703418112
 21
121.3047830242965
 31
0.0
  0
LINE
  5
15F
330
157
100
AcDbEntity
  8
基準ﾚｲﾔｸﾞﾙｰﾌﾟ_01
  6
極太
 62
     3
370
    35
100
AcDbLine
 10
101.9546703418112
 20
121.3047830242965
 30
0.0
 11
102.0463834171792
 21
121.2530543419774
 31
0.0
  0
LINE
  5
160
330
157
100
AcDbEntity
  8
基準ﾚｲﾔｸﾞﾙｰﾌﾟ_01
  6
極太
 62
     3
370
    35
100
AcDbLine
 10
102.0463834171792
 20
121.2530543419774
 30
0.0
 11
102.152188661911
 21
121.1988006216566
 31
0.0
  0
LINE
  5
161
330
157
100
AcDbEntity
  8
基準ﾚｲﾔｸﾞﾙｰﾌﾟ_01
  6
極太
 62
     3
370
    35
100
AcDbLine
 10
102.152188661911
 20
121.1988006216566
 30
0.0
 11
102.1822027115231
 21
121.1844859095164
 31
0.0
  0
LINE
  5
162
330
157
100
AcDbEntity
  8
基準ﾚｲﾔｸﾞﾙｰﾌﾟ_01
  6
極太
 62
     3
370
    35
100
AcDbLine
 10
102.1822027115231
 20
121.1844859095164
 30
0.0
 11
102.2121271376913
 21
121.1706925936069
 31
0.0
  0
LINE
  5
163
330
157
100
AcDbEntity
  8
基準ﾚｲﾔｸﾞﾙｰﾌﾟ_01
  6
極太
 62
     3
370
    35
100
AcDbLine
 10
102.2121271376913
 20
121.1706925936069
 30
0.0
 11
102.227056814643
 21
121.1639905165802
 31
0.0
  0
LINE
  5
164
330
157
100
AcDbEntity
  8
基準ﾚｲﾔｸﾞﾙｰﾌﾟ_01
  6
極太
 62
     3
370
    35
100
AcDbLine
 10
102.227056814643
 20
121.1639905165802
 30
0.0
 11
102.2419653689383
 21
121.1574176726215
 31
0.0
  0
LINE
  5
165
330
157
100
AcDbEntity
  8
基準ﾚｲﾔｸﾞﾙｰﾌﾟ_01
  6
極太
 62
     3
370
    35
100
AcDbLine
 10
102.2419653689383
 20
121.1574176726215
 30
0.0
 11
102.2717208023036
 21
121.1446582663726
 31
0.0
  0
LINE
  5
166
330
157
100
AcDbEntity
  8
基準ﾚｲﾔｸﾞﾙｰﾌﾟ_01
  6
極太
 62
     3
370
    35
100
AcDbLine
 10
102.2717208023036
 20
121.1446582663726
 30
0.0
 11
102.3013968046883
 21
121.1324116142041
 31
0.0
  0
LINE
  5
167
330
157
100
AcDbEntity
  8
基準ﾚｲﾔｸﾞﾙｰﾌﾟ_01
  6
極太
 62
     3
370
    35
100
AcDbLine
 10
102.3013968046883
 20
121.1324116142041
 30
0.0
 11
102.3309967141756
 21
121.1206750734736
 31
0.0
  0
LINE
  5
168
330
157
100
AcDbEntity
  8
基準ﾚｲﾔｸﾞﾙｰﾌﾟ_01
  6
極太
 62
     3
370
    35
100
AcDbLine
 10
102.3309967141756
 20
121.1206750734736
 30
0.0
 11
102.3605238413297
 21
121.1094461181082
 31
0.0
  0
LINE
  5
169
330
157
100
AcDbEntity
  8
基準ﾚｲﾔｸﾞﾙｰﾌﾟ_01
  6
極太
 62
     3
370
    35
100
AcDbLine
 10
102.3605238413297
 20
121.1094461181082
 30
0.0
 11
102.3899814704731
 21
121.0987223372257
 31
0.0
  0
LINE
  5
16A
330
157
100
AcDbEntity
  8
基準ﾚｲﾔｸﾞﾙｰﾌﾟ_01
  6
極太
 62
     3
370
    35
100
AcDbLine
 10
102.3899814704731
 20
121.0987223372257
 30
0.0
 11
102.404685242776
 21
121.0935491649891
 31
0.0
  0
LINE
  5
16B
330
157
100
AcDbEntity
  8
基準ﾚｲﾔｸﾞﾙｰﾌﾟ_01
  6
極太
 62
     3
370
    35
100
AcDbLine
 10
102.404685242776
 20
121.0935491649891
 30
0.0
 11
102.4193728609442
 21
121.0885014338262
 31
0.0
  0
LINE
  5
16C
330
157
100
AcDbEntity
  8
基準ﾚｲﾔｸﾞﾙｰﾌﾟ_01
  6
極太
 62
     3
370
    35
100
AcDbLine
 10
102.4193728609442
 20
121.0885014338262
 30
0.0
 11
102.4487012483354
 21
121.0787812235476
 31
0.0
  0
LINE
  5
16D
330
157
100
AcDbEntity
  8
基準ﾚｲﾔｸﾞﾙｰﾌﾟ_01
  6
極太
 62
     3
370
    35
100
AcDbLine
 10
102.4487012483354
 20
121.0787812235476
 30
0.0
 11
102.4779698457131
 21
121.0695596334867
 31
0.0
  0
LINE
  5
16E
330
157
100
AcDbEntity
  8
基準ﾚｲﾔｸﾞﾙｰﾌﾟ_01
  6
極太
 62
     3
370
    35
100
AcDbLine
 10
102.4779698457131
 20
121.0695596334867
 30
0.0
 11
102.5071818448214
 21
121.0608347010842
 31
0.0
  0
LINE
  5
16F
330
157
100
AcDbEntity
  8
基準ﾚｲﾔｸﾞﾙｰﾌﾟ_01
  6
極太
 62
     3
370
    35
100
AcDbLine
 10
102.5071818448214
 20
121.0608347010842
 30
0.0
 11
102.5363404172685
 21
121.0526045730717
 31
0.0
  0
LINE
  5
170
330
157
100
AcDbEntity
  8
基準ﾚｲﾔｸﾞﾙｰﾌﾟ_01
  6
極太
 62
     3
370
    35
100
AcDbLine
 10
102.5363404172685
 20
121.0526045730717
 30
0.0
 11
102.5654487156993
 21
121.0448675044795
 31
0.0
  0
LINE
  5
171
330
157
100
AcDbEntity
  8
基準ﾚｲﾔｸﾞﾙｰﾌﾟ_01
  6
極太
 62
     3
370
    35
100
AcDbLine
 10
102.5654487156993
 20
121.0448675044795
 30
0.0
 11
102.5799849924597
 21
121.0411833515458
 31
0.0
  0
LINE
  5
172
330
157
100
AcDbEntity
  8
基準ﾚｲﾔｸﾞﾙｰﾌﾟ_01
  6
極太
 62
     3
370
    35
100
AcDbLine
 10
102.5799849924597
 20
121.0411833515458
 30
0.0
 11
102.594509874952
 21
121.0376218577065
 31
0.0
  0
LINE
  5
173
330
157
100
AcDbEntity
  8
基準ﾚｲﾔｸﾞﾙｰﾌﾟ_01
  6
極太
 62
     3
370
    35
100
AcDbLine
 10
102.594509874952
 20
121.0376218577065
 30
0.0
 11
102.6235270132033
 21
121.0308661016479
 31
0.0
  0
LINE
  5
174
330
157
100
AcDbEntity
  8
基準ﾚｲﾔｸﾞﾙｰﾌﾟ_01
  6
極太
 62
     3
370
    35
100
AcDbLine
 10
102.6235270132033
 20
121.0308661016479
 30
0.0
 11
102.6525032331002
 21
121.024598810882
 31
0.0
  0
LINE
  5
175
330
157
100
AcDbEntity
  8
基準ﾚｲﾔｸﾞﾙｰﾌﾟ_01
  6
極太
 62
     3
370
    35
100
AcDbLine
 10
102.6525032331002
 20
121.024598810882
 30
0.0
 11
102.6814416228795
 21
121.0188186649152
 31
0.0
  0
LINE
  5
176
330
157
100
AcDbEntity
  8
基準ﾚｲﾔｸﾞﾙｰﾌﾟ_01
  6
極太
 62
     3
370
    35
100
AcDbLine
 10
102.6814416228795
 20
121.0188186649152
 30
0.0
 11
102.7103452574785
 21
121.0135244474835
 31
0.0
  0
LINE
  5
177
330
157
100
AcDbEntity
  8
基準ﾚｲﾔｸﾞﾙｰﾌﾟ_01
  6
極太
 62
     3
370
    35
100
AcDbLine
 10
102.7103452574785
 20
121.0135244474835
 30
0.0
 11
102.7392171996338
 21
121.0087150459103
 31
0.0
  0
LINE
  5
178
330
157
100
AcDbEntity
  8
基準ﾚｲﾔｸﾞﾙｰﾌﾟ_01
  6
極太
 62
     3
370
    35
100
AcDbLine
 10
102.7392171996338
 20
121.0087150459103
 30
0.0
 11
102.7536422400829
 21
121.0064918315386
 31
0.0
  0
LINE
  5
179
330
157
100
AcDbEntity
  8
基準ﾚｲﾔｸﾞﾙｰﾌﾟ_01
  6
極太
 62
     3
370
    35
100
AcDbLine
 10
102.7536422400829
 20
121.0064918315386
 30
0.0
 11
102.7680605009727
 21
121.0043894505205
 31
0.0
  0
LINE
  5
17A
330
157
100
AcDbEntity
  8
基準ﾚｲﾔｸﾞﾙｰﾌﾟ_01
  6
極太
 62
     3
370
    35
100
AcDbLine
 10
102.7680605009727
 20
121.0043894505205
 30
0.0
 11
102.7968782030954
 21
121.0005467541092
 31
0.0
  0
LINE
  5
17B
330
157
100
AcDbEntity
  8
基準ﾚｲﾔｸﾞﾙｰﾌﾟ_01
  6
極太
 62
     3
370
    35
100
AcDbLine
 10
102.7968782030954
 20
121.0005467541092
 30
0.0
 11
102.82567333865
 21
120.9971861514647
 31
0.0
  0
LINE
  5
17C
330
157
100
AcDbEntity
  8
基準ﾚｲﾔｸﾞﾙｰﾌﾟ_01
  6
極太
 62
     3
370
    35
100
AcDbLine
 10
102.82567333865
 20
120.9971861514647
 30
0.0
 11
102.8544489324016
 21
120.9943069389466
 31
0.0
  0
LINE
  5
17D
330
157
100
AcDbEntity
  8
基準ﾚｲﾔｸﾞﾙｰﾌﾟ_01
  6
極太
 62
     3
370
    35
100
AcDbLine
 10
102.8544489324016
 20
120.9943069389466
 30
0.0
 11
102.8832080022943
 21
120.9919085141165
 31
0.0
  0
LINE
  5
17E
330
157
100
AcDbEntity
  8
基準ﾚｲﾔｸﾞﾙｰﾌﾟ_01
  6
極太
 62
     3
370
    35
100
AcDbLine
 10
102.8832080022943
 20
120.9919085141165
 30
0.0
 11
102.9119535605098
 21
120.9899903754232
 31
0.0
  0
LINE
  5
17F
330
157
100
AcDbEntity
  8
基準ﾚｲﾔｸﾞﾙｰﾌﾟ_01
  6
極太
 62
     3
370
    35
100
AcDbLine
 10
102.9119535605098
 20
120.9899903754232
 30
0.0
 11
102.9263222127288
 21
120.9892112841635
 31
0.0
  0
LINE
  5
180
330
157
100
AcDbEntity
  8
基準ﾚｲﾔｸﾞﾙｰﾌﾟ_01
  6
極太
 62
     3
370
    35
100
AcDbLine
 10
102.9263222127288
 20
120.9892112841635
 30
0.0
 11
102.94068861452
 21
120.9885521219395
 31
0.0
  0
LINE
  5
181
330
157
100
AcDbEntity
  8
基準ﾚｲﾔｸﾞﾙｰﾌﾟ_01
  6
極太
 62
     3
370
    35
100
AcDbLine
 10
102.94068861452
 20
120.9885521219395
 30
0.0
 11
102.9694161681379
 21
120.9875934531536
 31
0.0
  0
LINE
  5
182
330
157
100
AcDbEntity
  8
基準ﾚｲﾔｸﾞﾙｰﾌﾟ_01
  6
極太
 62
     3
370
    35
100
AcDbLine
 10
102.9694161681379
 20
120.9875934531536
 30
0.0
 11
102.9981392225648
 21
120.9871141688111
 31
0.0
  0
LINE
  5
183
330
157
100
AcDbEntity
  8
基準ﾚｲﾔｸﾞﾙｰﾌﾟ_01
  6
極太
 62
     3
370
    35
100
AcDbLine
 10
102.9981392225648
 20
120.9871141688111
 30
0.0
 11
103.0125
 21
120.9870542606142
 31
0.0
  0
LINE
  5
184
330
157
100
AcDbEntity
  8
基準ﾚｲﾔｸﾞﾙｰﾌﾟ_01
  6
極太
 62
     3
370
    35
100
AcDbLine
 10
103.0125
 20
120.9870542606142
 30
0.0
 11
103.0268607774353
 21
120.9871141688111
 31
0.0
  0
LINE
  5
185
330
157
100
AcDbEntity
  8
基準ﾚｲﾔｸﾞﾙｰﾌﾟ_01
  6
極太
 62
     3
370
    35
100
AcDbLine
 10
103.0268607774353
 20
120.9871141688111
 30
0.0
 11
103.0555838318621
 21
120.9875934531536
 31
0.0
  0
LINE
  5
186
330
157
100
AcDbEntity
  8
基準ﾚｲﾔｸﾞﾙｰﾌﾟ_01
  6
極太
 62
     3
370
    35
100
AcDbLine
 10
103.0555838318621
 20
120.9875934531536
 30
0.0
 11
103.0843113854802
 21
120.9885521219395
 31
0.0
  0
LINE
  5
187
330
157
100
AcDbEntity
  8
基準ﾚｲﾔｸﾞﾙｰﾌﾟ_01
  6
極太
 62
     3
370
    35
100
AcDbLine
 10
103.0843113854802
 20
120.9885521219395
 30
0.0
 11
103.0986777872714
 21
120.9892112841635
 31
0.0
  0
LINE
  5
188
330
157
100
AcDbEntity
  8
基準ﾚｲﾔｸﾞﾙｰﾌﾟ_01
  6
極太
 62
     3
370
    35
100
AcDbLine
 10
103.0986777872714
 20
120.9892112841635
 30
0.0
 11
103.1130464394904
 21
120.9899903754232
 31
0.0
  0
LINE
  5
189
330
157
100
AcDbEntity
  8
基準ﾚｲﾔｸﾞﾙｰﾌﾟ_01
  6
極太
 62
     3
370
    35
100
AcDbLine
 10
103.1130464394904
 20
120.9899903754232
 30
0.0
 11
103.1417919977058
 21
120.9919085141165
 31
0.0
  0
LINE
  5
18A
330
157
100
AcDbEntity
  8
基準ﾚｲﾔｸﾞﾙｰﾌﾟ_01
  6
極太
 62
     3
370
    35
100
AcDbLine
 10
103.1417919977058
 20
120.9919085141165
 30
0.0
 11
103.1705510675986
 21
120.9943069389466
 31
0.0
  0
LINE
  5
18B
330
157
100
AcDbEntity
  8
基準ﾚｲﾔｸﾞﾙｰﾌﾟ_01
  6
極太
 62
     3
370
    35
100
AcDbLine
 10
103.1705510675986
 20
120.9943069389466
 30
0.0
 11
103.1993266613501
 21
120.9971861514647
 31
0.0
  0
LINE
  5
18C
330
157
100
AcDbEntity
  8
基準ﾚｲﾔｸﾞﾙｰﾌﾟ_01
  6
極太
 62
     3
370
    35
100
AcDbLine
 10
103.1993266613501
 20
120.9971861514647
 30
0.0
 11
103.2281217969048
 21
121.0005467541092
 31
0.0
  0
LINE
  5
18D
330
157
100
AcDbEntity
  8
基準ﾚｲﾔｸﾞﾙｰﾌﾟ_01
  6
極太
 62
     3
370
    35
100
AcDbLine
 10
103.2281217969048
 20
121.0005467541092
 30
0.0
 11
103.2569394990274
 21
121.0043894505205
 31
0.0
  0
LINE
  5
18E
330
157
100
AcDbEntity
  8
基準ﾚｲﾔｸﾞﾙｰﾌﾟ_01
  6
極太
 62
     3
370
    35
100
AcDbLine
 10
103.2569394990274
 20
121.0043894505205
 30
0.0
 11
103.2713577599172
 21
121.0064918315386
 31
0.0
  0
LINE
  5
18F
330
157
100
AcDbEntity
  8
基準ﾚｲﾔｸﾞﾙｰﾌﾟ_01
  6
極太
 62
     3
370
    35
100
AcDbLine
 10
103.2713577599172
 20
121.0064918315386
 30
0.0
 11
103.2857828003664
 21
121.0087150459103
 31
0.0
  0
LINE
  5
190
330
157
100
AcDbEntity
  8
基準ﾚｲﾔｸﾞﾙｰﾌﾟ_01
  6
極太
 62
     3
370
    35
100
AcDbLine
 10
103.2857828003664
 20
121.0087150459103
 30
0.0
 11
103.3146547425217
 21
121.0135244474835
 31
0.0
  0
LINE
  5
191
330
157
100
AcDbEntity
  8
基準ﾚｲﾔｸﾞﾙｰﾌﾟ_01
  6
極太
 62
     3
370
    35
100
AcDbLine
 10
103.3146547425217
 20
121.0135244474835
 30
0.0
 11
103.3435583771206
 21
121.0188186649152
 31
0.0
  0
LINE
  5
192
330
157
100
AcDbEntity
  8
基準ﾚｲﾔｸﾞﾙｰﾌﾟ_01
  6
極太
 62
     3
370
    35
100
AcDbLine
 10
103.3435583771206
 20
121.0188186649152
 30
0.0
 11
103.3724967669
 21
121.024598810882
 31
0.0
  0
LINE
  5
193
330
157
100
AcDbEntity
  8
基準ﾚｲﾔｸﾞﾙｰﾌﾟ_01
  6
極太
 62
     3
370
    35
100
AcDbLine
 10
103.3724967669
 20
121.024598810882
 30
0.0
 11
103.4014729867967
 21
121.0308661016479
 31
0.0
  0
LINE
  5
194
330
157
100
AcDbEntity
  8
基準ﾚｲﾔｸﾞﾙｰﾌﾟ_01
  6
極太
 62
     3
370
    35
100
AcDbLine
 10
103.4014729867967
 20
121.0308661016479
 30
0.0
 11
103.4304901250482
 21
121.0376218577065
 31
0.0
  0
LINE
  5
195
330
157
100
AcDbEntity
  8
基準ﾚｲﾔｸﾞﾙｰﾌﾟ_01
  6
極太
 62
     3
370
    35
100
AcDbLine
 10
103.4304901250482
 20
121.0376218577065
 30
0.0
 11
103.4450150075405
 21
121.0411833515458
 31
0.0
  0
LINE
  5
196
330
157
100
AcDbEntity
  8
基準ﾚｲﾔｸﾞﾙｰﾌﾟ_01
  6
極太
 62
     3
370
    35
100
AcDbLine
 10
103.4450150075405
 20
121.0411833515458
 30
0.0
 11
103.4595512843009
 21
121.0448675044795
 31
0.0
  0
LINE
  5
197
330
157
100
AcDbEntity
  8
基準ﾚｲﾔｸﾞﾙｰﾌﾟ_01
  6
極太
 62
     3
370
    35
100
AcDbLine
 10
103.4595512843009
 20
121.0448675044795
 30
0.0
 11
103.4886595827316
 21
121.0526045730717
 31
0.0
  0
LINE
  5
198
330
157
100
AcDbEntity
  8
基準ﾚｲﾔｸﾞﾙｰﾌﾟ_01
  6
極太
 62
     3
370
    35
100
AcDbLine
 10
103.4886595827316
 20
121.0526045730717
 30
0.0
 11
103.5178181551788
 21
121.0608347010842
 31
0.0
  0
LINE
  5
199
330
157
100
AcDbEntity
  8
基準ﾚｲﾔｸﾞﾙｰﾌﾟ_01
  6
極太
 62
     3
370
    35
100
AcDbLine
 10
103.5178181551788
 20
121.0608347010842
 30
0.0
 11
103.5470301542871
 21
121.0695596334867
 31
0.0
  0
LINE
  5
19A
330
157
100
AcDbEntity
  8
基準ﾚｲﾔｸﾞﾙｰﾌﾟ_01
  6
極太
 62
     3
370
    35
100
AcDbLine
 10
103.5470301542871
 20
121.0695596334867
 30
0.0
 11
103.5762987516648
 21
121.0787812235476
 31
0.0
  0
LINE
  5
19B
330
157
100
AcDbEntity
  8
基準ﾚｲﾔｸﾞﾙｰﾌﾟ_01
  6
極太
 62
     3
370
    35
100
AcDbLine
 10
103.5762987516648
 20
121.0787812235476
 30
0.0
 11
103.6056271390559
 21
121.0885014338262
 31
0.0
  0
LINE
  5
19C
330
157
100
AcDbEntity
  8
基準ﾚｲﾔｸﾞﾙｰﾌﾟ_01
  6
極太
 62
     3
370
    35
100
AcDbLine
 10
103.6056271390559
 20
121.0885014338262
 30
0.0
 11
103.6203147572241
 21
121.0935491649891
 31
0.0
  0
LINE
  5
19D
330
157
100
AcDbEntity
  8
基準ﾚｲﾔｸﾞﾙｰﾌﾟ_01
  6
極太
 62
     3
370
    35
100
AcDbLine
 10
103.6203147572241
 20
121.0935491649891
 30
0.0
 11
103.6350185295271
 21
121.0987223372257
 31
0.0
  0
LINE
  5
19E
330
157
100
AcDbEntity
  8
基準ﾚｲﾔｸﾞﾙｰﾌﾟ_01
  6
極太
 62
     3
370
    35
100
AcDbLine
 10
103.6350185295271
 20
121.0987223372257
 30
0.0
 11
103.6644761586705
 21
121.1094461181082
 31
0.0
  0
LINE
  5
19F
330
157
100
AcDbEntity
  8
基準ﾚｲﾔｸﾞﾙｰﾌﾟ_01
  6
極太
 62
     3
370
    35
100
AcDbLine
 10
103.6644761586705
 20
121.1094461181082
 30
0.0
 11
103.6940032858246
 21
121.1206750734736
 31
0.0
  0
LINE
  5
1A0
330
157
100
AcDbEntity
  8
基準ﾚｲﾔｸﾞﾙｰﾌﾟ_01
  6
極太
 62
     3
370
    35
100
AcDbLine
 10
103.6940032858246
 20
121.1206750734736
 30
0.0
 11
103.7236031953118
 21
121.1324116142041
 31
0.0
  0
LINE
  5
1A1
330
157
100
AcDbEntity
  8
基準ﾚｲﾔｸﾞﾙｰﾌﾟ_01
  6
極太
 62
     3
370
    35
100
AcDbLine
 10
103.7236031953118
 20
121.1324116142041
 30
0.0
 11
103.7532791976965
 21
121.1446582663726
 31
0.0
  0
LINE
  5
1A2
330
157
100
AcDbEntity
  8
基準ﾚｲﾔｸﾞﾙｰﾌﾟ_01
  6
極太
 62
     3
370
    35
100
AcDbLine
 10
103.7532791976965
 20
121.1446582663726
 30
0.0
 11
103.7830346310619
 21
121.1574176726215
 31
0.0
  0
LINE
  5
1A3
330
157
100
AcDbEntity
  8
基準ﾚｲﾔｸﾞﾙｰﾌﾟ_01
  6
極太
 62
     3
370
    35
100
AcDbLine
 10
103.7830346310619
 20
121.1574176726215
 30
0.0
 11
103.7979431853572
 21
121.1639905165802
 31
0.0
  0
LINE
  5
1A4
330
157
100
AcDbEntity
  8
基準ﾚｲﾔｸﾞﾙｰﾌﾟ_01
  6
極太
 62
     3
370
    35
100
AcDbLine
 10
103.7979431853572
 20
121.1639905165802
 30
0.0
 11
103.8128728623088
 21
121.1706925936069
 31
0.0
  0
LINE
  5
1A5
330
157
100
AcDbEntity
  8
基準ﾚｲﾔｸﾞﾙｰﾌﾟ_01
  6
極太
 62
     3
370
    35
100
AcDbLine
 10
103.8128728623088
 20
121.1706925936069
 30
0.0
 11
103.842797288477
 21
121.1844859095165
 31
0.0
  0
LINE
  5
1A6
330
157
100
AcDbEntity
  8
基準ﾚｲﾔｸﾞﾙｰﾌﾟ_01
  6
極太
 62
     3
370
    35
100
AcDbLine
 10
103.842797288477
 20
121.1844859095165
 30
0.0
 11
103.8728113380891
 21
121.1988006216566
 31
0.0
  0
LINE
  5
1A7
330
157
100
AcDbEntity
  8
基準ﾚｲﾔｸﾞﾙｰﾌﾟ_01
  6
極太
 62
     3
370
    35
100
AcDbLine
 10
103.8728113380891
 20
121.1988006216566
 30
0.0
 11
103.978616582821
 21
121.2530543419774
 31
0.0
  0
LINE
  5
1A8
330
157
100
AcDbEntity
  8
基準ﾚｲﾔｸﾞﾙｰﾌﾟ_01
  6
極太
 62
     3
370
    35
100
AcDbLine
 10
103.978616582821
 20
121.2530543419774
 30
0.0
 11
104.0703296581888
 21
121.3047830242965
 31
0.0
  0
LINE
  5
1A9
330
157
100
AcDbEntity
  8
基準ﾚｲﾔｸﾞﾙｰﾌﾟ_01
  6
極太
 62
     3
370
    35
100
AcDbLine
 10
104.0703296581888
 20
121.3047830242965
 30
0.0
 11
104.1630913492823
 21
121.3614440574538
 31
0.0
  0
LINE
  5
1AA
330
157
100
AcDbEntity
  8
基準ﾚｲﾔｸﾞﾙｰﾌﾟ_01
  6
極太
 62
     3
370
    35
100
AcDbLine
 10
104.1630913492823
 20
121.3614440574538
 30
0.0
 11
104.3521751193307
 21
121.4900337763919
 31
0.0
  0
LINE
  5
1AB
330
157
100
AcDbEntity
  8
基準ﾚｲﾔｸﾞﾙｰﾌﾟ_01
  6
極太
 62
     3
370
    35
100
AcDbLine
 10
104.3521751193307
 20
121.4900337763919
 30
0.0
 11
104.5467393790885
 21
121.6398865018236
 31
0.0
  0
LINE
  5
1AC
330
157
100
AcDbEntity
  8
基準ﾚｲﾔｸﾞﾙｰﾌﾟ_01
  6
極太
 62
     3
370
    35
100
AcDbLine
 10
104.5467393790885
 20
121.6398865018236
 30
0.0
 11
104.6463700223703
 21
121.723175853831
 31
0.0
  0
ENDBLK
  5
159
330
157
100
AcDbEntity
  8
0
100
AcDbBlockEnd
  0
BLOCK
  5
1AE
330
1AD
100
AcDbEntity
  8
0
100
AcDbBlockBegin
  2
BLKF026
 70
     0
 10
0.0
 20
0.0
 30
0.0
  3
BLKF026
  1

  0
LINE
  5
1B1
330
1AD
100
AcDbEntity
  8
基準ﾚｲﾔｸﾞﾙｰﾌﾟ_01
  6
極太
 62
     3
370
    35
100
AcDbLine
 10
105.3536299776299
 20
121.723175853831
 30
0.0
 11
105.4532606209115
 21
121.6398865018236
 31
0.0
  0
LINE
  5
1B2
330
1AD
100
AcDbEntity
  8
基準ﾚｲﾔｸﾞﾙｰﾌﾟ_01
  6
極太
 62
     3
370
    35
100
AcDbLine
 10
105.4532606209115
 20
121.6398865018236
 30
0.0
 11
105.6478248806694
 21
121.4900337763919
 31
0.0
  0
LINE
  5
1B3
330
1AD
100
AcDbEntity
  8
基準ﾚｲﾔｸﾞﾙｰﾌﾟ_01
  6
極太
 62
     3
370
    35
100
AcDbLine
 10
105.6478248806694
 20
121.4900337763919
 30
0.0
 11
105.8369086507177
 21
121.3614440574538
 31
0.0
  0
LINE
  5
1B4
330
1AD
100
AcDbEntity
  8
基準ﾚｲﾔｸﾞﾙｰﾌﾟ_01
  6
極太
 62
     3
370
    35
100
AcDbLine
 10
105.8369086507177
 20
121.3614440574538
 30
0.0
 11
105.9296703418113
 21
121.3047830242965
 31
0.0
  0
LINE
  5
1B5
330
1AD
100
AcDbEntity
  8
基準ﾚｲﾔｸﾞﾙｰﾌﾟ_01
  6
極太
 62
     3
370
    35
100
AcDbLine
 10
105.9296703418113
 20
121.3047830242965
 30
0.0
 11
106.0213834171792
 21
121.2530543419774
 31
0.0
  0
LINE
  5
1B6
330
1AD
100
AcDbEntity
  8
基準ﾚｲﾔｸﾞﾙｰﾌﾟ_01
  6
極太
 62
     3
370
    35
100
AcDbLine
 10
106.0213834171792
 20
121.2530543419774
 30
0.0
 11
106.127188661911
 21
121.1988006216566
 31
0.0
  0
LINE
  5
1B7
330
1AD
100
AcDbEntity
  8
基準ﾚｲﾔｸﾞﾙｰﾌﾟ_01
  6
極太
 62
     3
370
    35
100
AcDbLine
 10
106.127188661911
 20
121.1988006216566
 30
0.0
 11
106.1572027115231
 21
121.1844859095164
 31
0.0
  0
LINE
  5
1B8
330
1AD
100
AcDbEntity
  8
基準ﾚｲﾔｸﾞﾙｰﾌﾟ_01
  6
極太
 62
     3
370
    35
100
AcDbLine
 10
106.1572027115231
 20
121.1844859095164
 30
0.0
 11
106.1871271376912
 21
121.1706925936069
 31
0.0
  0
LINE
  5
1B9
330
1AD
100
AcDbEntity
  8
基準ﾚｲﾔｸﾞﾙｰﾌﾟ_01
  6
極太
 62
     3
370
    35
100
AcDbLine
 10
106.1871271376912
 20
121.1706925936069
 30
0.0
 11
106.202056814643
 21
121.1639905165802
 31
0.0
  0
LINE
  5
1BA
330
1AD
100
AcDbEntity
  8
基準ﾚｲﾔｸﾞﾙｰﾌﾟ_01
  6
極太
 62
     3
370
    35
100
AcDbLine
 10
106.202056814643
 20
121.1639905165802
 30
0.0
 11
106.2169653689383
 21
121.1574176726215
 31
0.0
  0
LINE
  5
1BB
330
1AD
100
AcDbEntity
  8
基準ﾚｲﾔｸﾞﾙｰﾌﾟ_01
  6
極太
 62
     3
370
    35
100
AcDbLine
 10
106.2169653689383
 20
121.1574176726215
 30
0.0
 11
106.2467208023037
 21
121.1446582663726
 31
0.0
  0
LINE
  5
1BC
330
1AD
100
AcDbEntity
  8
基準ﾚｲﾔｸﾞﾙｰﾌﾟ_01
  6
極太
 62
     3
370
    35
100
AcDbLine
 10
106.2467208023037
 20
121.1446582663726
 30
0.0
 11
106.2763968046883
 21
121.1324116142041
 31
0.0
  0
LINE
  5
1BD
330
1AD
100
AcDbEntity
  8
基準ﾚｲﾔｸﾞﾙｰﾌﾟ_01
  6
極太
 62
     3
370
    35
100
AcDbLine
 10
106.2763968046883
 20
121.1324116142041
 30
0.0
 11
106.3059967141756
 21
121.1206750734736
 31
0.0
  0
LINE
  5
1BE
330
1AD
100
AcDbEntity
  8
基準ﾚｲﾔｸﾞﾙｰﾌﾟ_01
  6
極太
 62
     3
370
    35
100
AcDbLine
 10
106.3059967141756
 20
121.1206750734736
 30
0.0
 11
106.3355238413297
 21
121.1094461181082
 31
0.0
  0
LINE
  5
1BF
330
1AD
100
AcDbEntity
  8
基準ﾚｲﾔｸﾞﾙｰﾌﾟ_01
  6
極太
 62
     3
370
    35
100
AcDbLine
 10
106.3355238413297
 20
121.1094461181082
 30
0.0
 11
106.3649814704731
 21
121.0987223372257
 31
0.0
  0
LINE
  5
1C0
330
1AD
100
AcDbEntity
  8
基準ﾚｲﾔｸﾞﾙｰﾌﾟ_01
  6
極太
 62
     3
370
    35
100
AcDbLine
 10
106.3649814704731
 20
121.0987223372257
 30
0.0
 11
106.379685242776
 21
121.0935491649891
 31
0.0
  0
LINE
  5
1C1
330
1AD
100
AcDbEntity
  8
基準ﾚｲﾔｸﾞﾙｰﾌﾟ_01
  6
極太
 62
     3
370
    35
100
AcDbLine
 10
106.379685242776
 20
121.0935491649891
 30
0.0
 11
106.3943728609442
 21
121.0885014338262
 31
0.0
  0
LINE
  5
1C2
330
1AD
100
AcDbEntity
  8
基準ﾚｲﾔｸﾞﾙｰﾌﾟ_01
  6
極太
 62
     3
370
    35
100
AcDbLine
 10
106.3943728609442
 20
121.0885014338262
 30
0.0
 11
106.4237012483354
 21
121.0787812235476
 31
0.0
  0
LINE
  5
1C3
330
1AD
100
AcDbEntity
  8
基準ﾚｲﾔｸﾞﾙｰﾌﾟ_01
  6
極太
 62
     3
370
    35
100
AcDbLine
 10
106.4237012483354
 20
121.0787812235476
 30
0.0
 11
106.4529698457131
 21
121.0695596334867
 31
0.0
  0
LINE
  5
1C4
330
1AD
100
AcDbEntity
  8
基準ﾚｲﾔｸﾞﾙｰﾌﾟ_01
  6
極太
 62
     3
370
    35
100
AcDbLine
 10
106.4529698457131
 20
121.0695596334867
 30
0.0
 11
106.4821818448214
 21
121.0608347010842
 31
0.0
  0
LINE
  5
1C5
330
1AD
100
AcDbEntity
  8
基準ﾚｲﾔｸﾞﾙｰﾌﾟ_01
  6
極太
 62
     3
370
    35
100
AcDbLine
 10
106.4821818448214
 20
121.0608347010842
 30
0.0
 11
106.5113404172685
 21
121.0526045730717
 31
0.0
  0
LINE
  5
1C6
330
1AD
100
AcDbEntity
  8
基準ﾚｲﾔｸﾞﾙｰﾌﾟ_01
  6
極太
 62
     3
370
    35
100
AcDbLine
 10
106.5113404172685
 20
121.0526045730717
 30
0.0
 11
106.5404487156993
 21
121.0448675044795
 31
0.0
  0
LINE
  5
1C7
330
1AD
100
AcDbEntity
  8
基準ﾚｲﾔｸﾞﾙｰﾌﾟ_01
  6
極太
 62
     3
370
    35
100
AcDbLine
 10
106.5404487156993
 20
121.0448675044795
 30
0.0
 11
106.5549849924596
 21
121.0411833515458
 31
0.0
  0
LINE
  5
1C8
330
1AD
100
AcDbEntity
  8
基準ﾚｲﾔｸﾞﾙｰﾌﾟ_01
  6
極太
 62
     3
370
    35
100
AcDbLine
 10
106.5549849924596
 20
121.0411833515458
 30
0.0
 11
106.569509874952
 21
121.0376218577065
 31
0.0
  0
LINE
  5
1C9
330
1AD
100
AcDbEntity
  8
基準ﾚｲﾔｸﾞﾙｰﾌﾟ_01
  6
極太
 62
     3
370
    35
100
AcDbLine
 10
106.569509874952
 20
121.0376218577065
 30
0.0
 11
106.5985270132033
 21
121.0308661016479
 31
0.0
  0
LINE
  5
1CA
330
1AD
100
AcDbEntity
  8
基準ﾚｲﾔｸﾞﾙｰﾌﾟ_01
  6
極太
 62
     3
370
    35
100
AcDbLine
 10
106.5985270132033
 20
121.0308661016479
 30
0.0
 11
106.6275032331002
 21
121.024598810882
 31
0.0
  0
LINE
  5
1CB
330
1AD
100
AcDbEntity
  8
基準ﾚｲﾔｸﾞﾙｰﾌﾟ_01
  6
極太
 62
     3
370
    35
100
AcDbLine
 10
106.6275032331002
 20
121.024598810882
 30
0.0
 11
106.6564416228796
 21
121.0188186649152
 31
0.0
  0
LINE
  5
1CC
330
1AD
100
AcDbEntity
  8
基準ﾚｲﾔｸﾞﾙｰﾌﾟ_01
  6
極太
 62
     3
370
    35
100
AcDbLine
 10
106.6564416228796
 20
121.0188186649152
 30
0.0
 11
106.6853452574785
 21
121.0135244474835
 31
0.0
  0
LINE
  5
1CD
330
1AD
100
AcDbEntity
  8
基準ﾚｲﾔｸﾞﾙｰﾌﾟ_01
  6
極太
 62
     3
370
    35
100
AcDbLine
 10
106.6853452574785
 20
121.0135244474835
 30
0.0
 11
106.7142171996338
 21
121.0087150459103
 31
0.0
  0
LINE
  5
1CE
330
1AD
100
AcDbEntity
  8
基準ﾚｲﾔｸﾞﾙｰﾌﾟ_01
  6
極太
 62
     3
370
    35
100
AcDbLine
 10
106.7142171996338
 20
121.0087150459103
 30
0.0
 11
106.7286422400828
 21
121.0064918315385
 31
0.0
  0
LINE
  5
1CF
330
1AD
100
AcDbEntity
  8
基準ﾚｲﾔｸﾞﾙｰﾌﾟ_01
  6
極太
 62
     3
370
    35
100
AcDbLine
 10
106.7286422400828
 20
121.0064918315385
 30
0.0
 11
106.7430605009727
 21
121.0043894505205
 31
0.0
  0
LINE
  5
1D0
330
1AD
100
AcDbEntity
  8
基準ﾚｲﾔｸﾞﾙｰﾌﾟ_01
  6
極太
 62
     3
370
    35
100
AcDbLine
 10
106.7430605009727
 20
121.0043894505205
 30
0.0
 11
106.7718782030954
 21
121.0005467541092
 31
0.0
  0
LINE
  5
1D1
330
1AD
100
AcDbEntity
  8
基準ﾚｲﾔｸﾞﾙｰﾌﾟ_01
  6
極太
 62
     3
370
    35
100
AcDbLine
 10
106.7718782030954
 20
121.0005467541092
 30
0.0
 11
106.8006733386499
 21
120.9971861514646
 31
0.0
  0
LINE
  5
1D2
330
1AD
100
AcDbEntity
  8
基準ﾚｲﾔｸﾞﾙｰﾌﾟ_01
  6
極太
 62
     3
370
    35
100
AcDbLine
 10
106.8006733386499
 20
120.9971861514646
 30
0.0
 11
106.8294489324015
 21
120.9943069389465
 31
0.0
  0
LINE
  5
1D3
330
1AD
100
AcDbEntity
  8
基準ﾚｲﾔｸﾞﾙｰﾌﾟ_01
  6
極太
 62
     3
370
    35
100
AcDbLine
 10
106.8294489324015
 20
120.9943069389465
 30
0.0
 11
106.8582080022943
 21
120.9919085141165
 31
0.0
  0
LINE
  5
1D4
330
1AD
100
AcDbEntity
  8
基準ﾚｲﾔｸﾞﾙｰﾌﾟ_01
  6
極太
 62
     3
370
    35
100
AcDbLine
 10
106.8582080022943
 20
120.9919085141165
 30
0.0
 11
106.8869535605098
 21
120.9899903754231
 31
0.0
  0
LINE
  5
1D5
330
1AD
100
AcDbEntity
  8
基準ﾚｲﾔｸﾞﾙｰﾌﾟ_01
  6
極太
 62
     3
370
    35
100
AcDbLine
 10
106.8869535605098
 20
120.9899903754231
 30
0.0
 11
106.9013222127288
 21
120.9892112841634
 31
0.0
  0
LINE
  5
1D6
330
1AD
100
AcDbEntity
  8
基準ﾚｲﾔｸﾞﾙｰﾌﾟ_01
  6
極太
 62
     3
370
    35
100
AcDbLine
 10
106.9013222127288
 20
120.9892112841634
 30
0.0
 11
106.91568861452
 21
120.9885521219394
 31
0.0
  0
LINE
  5
1D7
330
1AD
100
AcDbEntity
  8
基準ﾚｲﾔｸﾞﾙｰﾌﾟ_01
  6
極太
 62
     3
370
    35
100
AcDbLine
 10
106.91568861452
 20
120.9885521219394
 30
0.0
 11
106.944416168138
 21
120.9875934531536
 31
0.0
  0
LINE
  5
1D8
330
1AD
100
AcDbEntity
  8
基準ﾚｲﾔｸﾞﾙｰﾌﾟ_01
  6
極太
 62
     3
370
    35
100
AcDbLine
 10
106.944416168138
 20
120.9875934531536
 30
0.0
 11
106.9731392225649
 21
120.987114168811
 31
0.0
  0
LINE
  5
1D9
330
1AD
100
AcDbEntity
  8
基準ﾚｲﾔｸﾞﾙｰﾌﾟ_01
  6
極太
 62
     3
370
    35
100
AcDbLine
 10
106.9731392225649
 20
120.987114168811
 30
0.0
 11
106.9875
 21
120.9870542606141
 31
0.0
  0
LINE
  5
1DA
330
1AD
100
AcDbEntity
  8
基準ﾚｲﾔｸﾞﾙｰﾌﾟ_01
  6
極太
 62
     3
370
    35
100
AcDbLine
 10
106.9875
 20
120.9870542606141
 30
0.0
 11
107.0018607774353
 21
120.987114168811
 31
0.0
  0
LINE
  5
1DB
330
1AD
100
AcDbEntity
  8
基準ﾚｲﾔｸﾞﾙｰﾌﾟ_01
  6
極太
 62
     3
370
    35
100
AcDbLine
 10
107.0018607774353
 20
120.987114168811
 30
0.0
 11
107.0305838318621
 21
120.9875934531536
 31
0.0
  0
LINE
  5
1DC
330
1AD
100
AcDbEntity
  8
基準ﾚｲﾔｸﾞﾙｰﾌﾟ_01
  6
極太
 62
     3
370
    35
100
AcDbLine
 10
107.0305838318621
 20
120.9875934531536
 30
0.0
 11
107.0593113854802
 21
120.9885521219394
 31
0.0
  0
LINE
  5
1DD
330
1AD
100
AcDbEntity
  8
基準ﾚｲﾔｸﾞﾙｰﾌﾟ_01
  6
極太
 62
     3
370
    35
100
AcDbLine
 10
107.0593113854802
 20
120.9885521219394
 30
0.0
 11
107.0736777872714
 21
120.9892112841634
 31
0.0
  0
LINE
  5
1DE
330
1AD
100
AcDbEntity
  8
基準ﾚｲﾔｸﾞﾙｰﾌﾟ_01
  6
極太
 62
     3
370
    35
100
AcDbLine
 10
107.0736777872714
 20
120.9892112841634
 30
0.0
 11
107.0880464394904
 21
120.9899903754231
 31
0.0
  0
LINE
  5
1DF
330
1AD
100
AcDbEntity
  8
基準ﾚｲﾔｸﾞﾙｰﾌﾟ_01
  6
極太
 62
     3
370
    35
100
AcDbLine
 10
107.0880464394904
 20
120.9899903754231
 30
0.0
 11
107.1167919977058
 21
120.9919085141165
 31
0.0
  0
LINE
  5
1E0
330
1AD
100
AcDbEntity
  8
基準ﾚｲﾔｸﾞﾙｰﾌﾟ_01
  6
極太
 62
     3
370
    35
100
AcDbLine
 10
107.1167919977058
 20
120.9919085141165
 30
0.0
 11
107.1455510675986
 21
120.9943069389465
 31
0.0
  0
LINE
  5
1E1
330
1AD
100
AcDbEntity
  8
基準ﾚｲﾔｸﾞﾙｰﾌﾟ_01
  6
極太
 62
     3
370
    35
100
AcDbLine
 10
107.1455510675986
 20
120.9943069389465
 30
0.0
 11
107.1743266613501
 21
120.9971861514646
 31
0.0
  0
LINE
  5
1E2
330
1AD
100
AcDbEntity
  8
基準ﾚｲﾔｸﾞﾙｰﾌﾟ_01
  6
極太
 62
     3
370
    35
100
AcDbLine
 10
107.1743266613501
 20
120.9971861514646
 30
0.0
 11
107.2031217969048
 21
121.0005467541092
 31
0.0
  0
LINE
  5
1E3
330
1AD
100
AcDbEntity
  8
基準ﾚｲﾔｸﾞﾙｰﾌﾟ_01
  6
極太
 62
     3
370
    35
100
AcDbLine
 10
107.2031217969048
 20
121.0005467541092
 30
0.0
 11
107.2319394990274
 21
121.0043894505205
 31
0.0
  0
LINE
  5
1E4
330
1AD
100
AcDbEntity
  8
基準ﾚｲﾔｸﾞﾙｰﾌﾟ_01
  6
極太
 62
     3
370
    35
100
AcDbLine
 10
107.2319394990274
 20
121.0043894505205
 30
0.0
 11
107.2463577599172
 21
121.0064918315385
 31
0.0
  0
LINE
  5
1E5
330
1AD
100
AcDbEntity
  8
基準ﾚｲﾔｸﾞﾙｰﾌﾟ_01
  6
極太
 62
     3
370
    35
100
AcDbLine
 10
107.2463577599172
 20
121.0064918315385
 30
0.0
 11
107.2607828003663
 21
121.0087150459103
 31
0.0
  0
LINE
  5
1E6
330
1AD
100
AcDbEntity
  8
基準ﾚｲﾔｸﾞﾙｰﾌﾟ_01
  6
極太
 62
     3
370
    35
100
AcDbLine
 10
107.2607828003663
 20
121.0087150459103
 30
0.0
 11
107.2896547425217
 21
121.0135244474835
 31
0.0
  0
LINE
  5
1E7
330
1AD
100
AcDbEntity
  8
基準ﾚｲﾔｸﾞﾙｰﾌﾟ_01
  6
極太
 62
     3
370
    35
100
AcDbLine
 10
107.2896547425217
 20
121.0135244474835
 30
0.0
 11
107.3185583771206
 21
121.0188186649152
 31
0.0
  0
LINE
  5
1E8
330
1AD
100
AcDbEntity
  8
基準ﾚｲﾔｸﾞﾙｰﾌﾟ_01
  6
極太
 62
     3
370
    35
100
AcDbLine
 10
107.3185583771206
 20
121.0188186649152
 30
0.0
 11
107.3474967669
 21
121.024598810882
 31
0.0
  0
LINE
  5
1E9
330
1AD
100
AcDbEntity
  8
基準ﾚｲﾔｸﾞﾙｰﾌﾟ_01
  6
極太
 62
     3
370
    35
100
AcDbLine
 10
107.3474967669
 20
121.024598810882
 30
0.0
 11
107.3764729867968
 21
121.0308661016479
 31
0.0
  0
LINE
  5
1EA
330
1AD
100
AcDbEntity
  8
基準ﾚｲﾔｸﾞﾙｰﾌﾟ_01
  6
極太
 62
     3
370
    35
100
AcDbLine
 10
107.3764729867968
 20
121.0308661016479
 30
0.0
 11
107.4054901250482
 21
121.0376218577065
 31
0.0
  0
LINE
  5
1EB
330
1AD
100
AcDbEntity
  8
基準ﾚｲﾔｸﾞﾙｰﾌﾟ_01
  6
極太
 62
     3
370
    35
100
AcDbLine
 10
107.4054901250482
 20
121.0376218577065
 30
0.0
 11
107.4200150075405
 21
121.0411833515457
 31
0.0
  0
LINE
  5
1EC
330
1AD
100
AcDbEntity
  8
基準ﾚｲﾔｸﾞﾙｰﾌﾟ_01
  6
極太
 62
     3
370
    35
100
AcDbLine
 10
107.4200150075405
 20
121.0411833515457
 30
0.0
 11
107.4345512843009
 21
121.0448675044794
 31
0.0
  0
LINE
  5
1ED
330
1AD
100
AcDbEntity
  8
基準ﾚｲﾔｸﾞﾙｰﾌﾟ_01
  6
極太
 62
     3
370
    35
100
AcDbLine
 10
107.4345512843009
 20
121.0448675044794
 30
0.0
 11
107.4636595827315
 21
121.0526045730716
 31
0.0
  0
LINE
  5
1EE
330
1AD
100
AcDbEntity
  8
基準ﾚｲﾔｸﾞﾙｰﾌﾟ_01
  6
極太
 62
     3
370
    35
100
AcDbLine
 10
107.4636595827315
 20
121.0526045730716
 30
0.0
 11
107.4928181551788
 21
121.0608347010842
 31
0.0
  0
LINE
  5
1EF
330
1AD
100
AcDbEntity
  8
基準ﾚｲﾔｸﾞﾙｰﾌﾟ_01
  6
極太
 62
     3
370
    35
100
AcDbLine
 10
107.4928181551788
 20
121.0608347010842
 30
0.0
 11
107.5220301542871
 21
121.0695596334867
 31
0.0
  0
LINE
  5
1F0
330
1AD
100
AcDbEntity
  8
基準ﾚｲﾔｸﾞﾙｰﾌﾟ_01
  6
極太
 62
     3
370
    35
100
AcDbLine
 10
107.5220301542871
 20
121.0695596334867
 30
0.0
 11
107.5512987516648
 21
121.0787812235475
 31
0.0
  0
LINE
  5
1F1
330
1AD
100
AcDbEntity
  8
基準ﾚｲﾔｸﾞﾙｰﾌﾟ_01
  6
極太
 62
     3
370
    35
100
AcDbLine
 10
107.5512987516648
 20
121.0787812235475
 30
0.0
 11
107.580627139056
 21
121.0885014338261
 31
0.0
  0
LINE
  5
1F2
330
1AD
100
AcDbEntity
  8
基準ﾚｲﾔｸﾞﾙｰﾌﾟ_01
  6
極太
 62
     3
370
    35
100
AcDbLine
 10
107.580627139056
 20
121.0885014338261
 30
0.0
 11
107.5953147572241
 21
121.093549164989
 31
0.0
  0
LINE
  5
1F3
330
1AD
100
AcDbEntity
  8
基準ﾚｲﾔｸﾞﾙｰﾌﾟ_01
  6
極太
 62
     3
370
    35
100
AcDbLine
 10
107.5953147572241
 20
121.093549164989
 30
0.0
 11
107.610018529527
 21
121.0987223372256
 31
0.0
  0
LINE
  5
1F4
330
1AD
100
AcDbEntity
  8
基準ﾚｲﾔｸﾞﾙｰﾌﾟ_01
  6
極太
 62
     3
370
    35
100
AcDbLine
 10
107.610018529527
 20
121.0987223372256
 30
0.0
 11
107.6394761586705
 21
121.1094461181081
 31
0.0
  0
LINE
  5
1F5
330
1AD
100
AcDbEntity
  8
基準ﾚｲﾔｸﾞﾙｰﾌﾟ_01
  6
極太
 62
     3
370
    35
100
AcDbLine
 10
107.6394761586705
 20
121.1094461181081
 30
0.0
 11
107.6690032858245
 21
121.1206750734736
 31
0.0
  0
LINE
  5
1F6
330
1AD
100
AcDbEntity
  8
基準ﾚｲﾔｸﾞﾙｰﾌﾟ_01
  6
極太
 62
     3
370
    35
100
AcDbLine
 10
107.6690032858245
 20
121.1206750734736
 30
0.0
 11
107.6986031953118
 21
121.132411614204
 31
0.0
  0
LINE
  5
1F7
330
1AD
100
AcDbEntity
  8
基準ﾚｲﾔｸﾞﾙｰﾌﾟ_01
  6
極太
 62
     3
370
    35
100
AcDbLine
 10
107.6986031953118
 20
121.132411614204
 30
0.0
 11
107.7282791976965
 21
121.1446582663726
 31
0.0
  0
LINE
  5
1F8
330
1AD
100
AcDbEntity
  8
基準ﾚｲﾔｸﾞﾙｰﾌﾟ_01
  6
極太
 62
     3
370
    35
100
AcDbLine
 10
107.7282791976965
 20
121.1446582663726
 30
0.0
 11
107.7580346310618
 21
121.1574176726214
 31
0.0
  0
LINE
  5
1F9
330
1AD
100
AcDbEntity
  8
基準ﾚｲﾔｸﾞﾙｰﾌﾟ_01
  6
極太
 62
     3
370
    35
100
AcDbLine
 10
107.7580346310618
 20
121.1574176726214
 30
0.0
 11
107.7729431853572
 21
121.1639905165801
 31
0.0
  0
LINE
  5
1FA
330
1AD
100
AcDbEntity
  8
基準ﾚｲﾔｸﾞﾙｰﾌﾟ_01
  6
極太
 62
     3
370
    35
100
AcDbLine
 10
107.7729431853572
 20
121.1639905165801
 30
0.0
 11
107.7878728623088
 21
121.1706925936068
 31
0.0
  0
LINE
  5
1FB
330
1AD
100
AcDbEntity
  8
基準ﾚｲﾔｸﾞﾙｰﾌﾟ_01
  6
極太
 62
     3
370
    35
100
AcDbLine
 10
107.7878728623088
 20
121.1706925936068
 30
0.0
 11
107.8177972884771
 21
121.1844859095165
 31
0.0
  0
LINE
  5
1FC
330
1AD
100
AcDbEntity
  8
基準ﾚｲﾔｸﾞﾙｰﾌﾟ_01
  6
極太
 62
     3
370
    35
100
AcDbLine
 10
107.8177972884771
 20
121.1844859095165
 30
0.0
 11
107.8478113380891
 21
121.1988006216565
 31
0.0
  0
LINE
  5
1FD
330
1AD
100
AcDbEntity
  8
基準ﾚｲﾔｸﾞﾙｰﾌﾟ_01
  6
極太
 62
     3
370
    35
100
AcDbLine
 10
107.8478113380891
 20
121.1988006216565
 30
0.0
 11
107.953616582821
 21
121.2530543419774
 31
0.0
  0
LINE
  5
1FE
330
1AD
100
AcDbEntity
  8
基準ﾚｲﾔｸﾞﾙｰﾌﾟ_01
  6
極太
 62
     3
370
    35
100
AcDbLine
 10
107.953616582821
 20
121.2530543419774
 30
0.0
 11
108.0453296581888
 21
121.3047830242965
 31
0.0
  0
LINE
  5
1FF
330
1AD
100
AcDbEntity
  8
基準ﾚｲﾔｸﾞﾙｰﾌﾟ_01
  6
極太
 62
     3
370
    35
100
AcDbLine
 10
108.0453296581888
 20
121.3047830242965
 30
0.0
 11
108.1380913492823
 21
121.3614440574538
 31
0.0
  0
LINE
  5
200
330
1AD
100
AcDbEntity
  8
基準ﾚｲﾔｸﾞﾙｰﾌﾟ_01
  6
極太
 62
     3
370
    35
100
AcDbLine
 10
108.1380913492823
 20
121.3614440574538
 30
0.0
 11
108.3271751193307
 21
121.4900337763918
 31
0.0
  0
LINE
  5
201
330
1AD
100
AcDbEntity
  8
基準ﾚｲﾔｸﾞﾙｰﾌﾟ_01
  6
極太
 62
     3
370
    35
100
AcDbLine
 10
108.3271751193307
 20
121.4900337763918
 30
0.0
 11
108.5217393790885
 21
121.6398865018236
 31
0.0
  0
LINE
  5
202
330
1AD
100
AcDbEntity
  8
基準ﾚｲﾔｸﾞﾙｰﾌﾟ_01
  6
極太
 62
     3
370
    35
100
AcDbLine
 10
108.5217393790885
 20
121.6398865018236
 30
0.0
 11
108.6213700223703
 21
121.7231758538309
 31
0.0
  0
ENDBLK
  5
1AF
330
1AD
100
AcDbEntity
  8
0
100
AcDbBlockEnd
  0
ENDSEC
  0
SECTION
  2
ENTITIES
  0
LINE
  5
B0
330
1F
100
AcDbEntity
  8
基準ﾚｲﾔｸﾞﾙｰﾌﾟ_01
  6
極太
 62
     3
370
    35
100
AcDbLine
 10
12.00000000000006
 20
18.50000000000002
 30
0.0
 11
12.00000000000014
 21
278.5
 31
0.0
  0
LINE
  5
B1
330
1F
100
AcDbEntity
  8
基準ﾚｲﾔｸﾞﾙｰﾌﾟ_01
  6
極太
 62
     3
370
    35
100
AcDbLine
 10
12.00000000000014
 20
278.5
 30
0.0
 11
198.0000000000001
 21
278.5
 31
0.0
  0
LINE
  5
B2
330
1F
100
AcDbEntity
  8
基準ﾚｲﾔｸﾞﾙｰﾌﾟ_01
  6
極太
 62
     3
370
    35
100
AcDbLine
 10
198.0000000000001
 20
278.5
 30
0.0
 11
198.0000000000001
 21
18.49999999999998
 31
0.0
  0
LINE
  5
B3
330
1F
100
AcDbEntity
  8
基準ﾚｲﾔｸﾞﾙｰﾌﾟ_01
  6
極太
 62
     3
370
    35
100
AcDbLine
 10
198.0
 20
18.49999999999998
 30
0.0
 11
12.00000000000006
 21
18.49999999999998
 31
0.0
  0
LINE
  5
B4
330
1F
100
AcDbEntity
  8
基準ﾚｲﾔｸﾞﾙｰﾌﾟ_01
  6
極太
 62
     3
370
    35
100
AcDbLine
 10
85.99999999999999
 20
44.09999999999998
 30
0.0
 11
86.0
 21
18.49999999999998
 31
0.0
  0
LINE
  5
B5
330
1F
100
AcDbEntity
  8
基準ﾚｲﾔｸﾞﾙｰﾌﾟ_01
  6
極太
 62
     3
370
    35
100
AcDbLine
 10
198.0
 20
44.09999999999998
 30
0.0
 11
86.0
 21
44.09999999999998
 31
0.0
  0
LINE
  5
B6
330
1F
100
AcDbEntity
  8
基準ﾚｲﾔｸﾞﾙｰﾌﾟ_01
  6
極太
 62
     4
370
    25
100
AcDbLine
 10
142.0
 20
44.09999999999998
 30
0.0
 11
142.0
 21
18.49999999999998
 31
0.0
  0
LINE
  5
B7
330
1F
100
AcDbEntity
  8
基準ﾚｲﾔｸﾞﾙｰﾌﾟ_01
  6
極太
 62
     4
370
    25
100
AcDbLine
 10
198.0
 20
28.09999999999998
 30
0.0
 11
86.0
 21
28.09999999999998
 31
0.0
  0
LINE
  5
B8
330
1F
100
AcDbEntity
  8
基準ﾚｲﾔｸﾞﾙｰﾌﾟ_01
  6
極太
 62
     4
370
    25
100
AcDbLine
 10
142.0
 20
37.69999999999998
 30
0.0
 11
86.0
 21
37.69999999999998
 31
0.0
  0
TEXT
  5
B9
330
1F
100
AcDbEntity
  8
基準ﾚｲﾔｸﾞﾙｰﾌﾟ_01
  6
極太
 62
     4
370
    35
100
AcDbText
 10
99.43135070800781
 20
21.318115234375
 30
0.0
 40
3.5
  1
双葉電子工業株式会社
 41
0.9206779690112098
  7
FX_VECTOR
 72
     5
 11
126.5913507938385
 21
21.318115234375
 31
0.0
100
AcDbText
  0
LINE
  5
BA
330
1F
100
AcDbEntity
  8
基準ﾚｲﾔｸﾞﾙｰﾌﾟ_01
  6
極太
 62
     4
370
    25
100
AcDbLine
 10
94.0
 20
37.69999999999998
 30
0.0
 11
94.0
 21
28.09999999999998
 31
0.0
  0
TEXT
  5
BB
330
1F
100
AcDbEntity
  8
基準ﾚｲﾔｸﾞﾙｰﾌﾟ_01
  6
極太
 62
     7
370
    18
100
AcDbText
 10
87.85848999023438
 20
33.5070686340332
 30
0.0
 40
3.200000047683716
  1
作成
 41
1.002272752164439
  7
FX_VECTOR
 72
     5
 11
92.89849019050598
 21
33.5070686340332
 31
0.0
100
AcDbText
  0
TEXT
  5
BC
330
1F
100
AcDbEntity
  8
基準ﾚｲﾔｸﾞﾙｰﾌﾟ_01
  6
極太
 62
     7
370
    18
100
AcDbText
 10
87.85848999023438
 20
29.1923942565918
 30
0.0
 40
3.200000047683716
  1
尺度
 41
1.002272752164439
  7
FX_VECTOR
 72
     5
 11
92.89849019050598
 21
29.1923942565918
 31
0.0
100
AcDbText
  0
TEXT
  5
BD
330
1F
100
AcDbEntity
  8
基準ﾚｲﾔｸﾞﾙｰﾌﾟ_01
  6
極太
 62
     4
370
    18
100
AcDbText
 10
108.8220825195312
 20
33.143310546875
 30
0.0
 40
3.200000047683716
  1
　　　　
 41
0.9815217635067905
  7
FX_VECTOR
 72
     5
 11
119.1420829296112
 21
33.143310546875
 31
0.0
100
AcDbText
  0
TEXT
  5
BE
330
1F
100
AcDbEntity
  8
基準ﾚｲﾔｸﾞﾙｰﾌﾟ_01
  6
極太
 62
     7
370
    18
100
AcDbText
 10
123.8860473632812
 20
31.3497314453125
 30
0.0
 40
3.200000047683716
  1
第三角法
 41
0.9815217635067905
  7
FX_VECTOR
 72
     5
 11
134.2060477733612
 21
31.3497314453125
 31
0.0
100
AcDbText
  0
LINE
  5
BF
330
1F
100
AcDbEntity
  8
基準ﾚｲﾔｸﾞﾙｰﾌﾟ_01
  6
極太
 62
     4
370
    25
100
AcDbLine
 10
154.0
 20
44.09999999999998
 30
0.0
 11
154.0
 21
18.49999999999998
 31
0.0
  0
TEXT
  5
C0
330
1F
100
AcDbEntity
  8
基準ﾚｲﾔｸﾞﾙｰﾌﾟ_01
  6
極太
 62
     7
370
    18
100
AcDbText
 10
142.9783935546875
 20
22.02148818969727
 30
0.0
 40
1.920000076293945
  1
カタログＮｏ，
 41
0.97317073329738
  7
FX_VECTOR
 72
     5
 11
153.9223940074444
 21
22.02148818969727
 31
0.0
100
AcDbText
  0
TEXT
  5
C1
330
1F
100
AcDbEntity
  8
基準ﾚｲﾔｸﾞﾙｰﾌﾟ_01
  6
極太
 62
     7
370
    18
100
AcDbText
 10
145.5671997070312
 20
37.39027786254883
 30
0.0
 40
3.200000047683716
  1
図面
 41
1.002272752164439
  7
FX_VECTOR
 72
     5
 11
150.6071999073029
 21
37.39027786254883
 31
0.0
100
AcDbText
  0
TEXT
  5
C2
330
1F
100
AcDbEntity
  8
基準ﾚｲﾔｸﾞﾙｰﾌﾟ_01
  6
極太
 62
     7
370
    18
100
AcDbText
 10
145.4593505859375
 20
32.21266555786133
 30
0.0
 40
3.200000047683716
  1
名称
 41
1.002272752164439
  7
FX_VECTOR
 72
     5
 11
150.4993507862091
 21
32.21266555786133
 31
0.0
100
AcDbText
  0
LINE
  5
C3
330
1F
100
AcDbEntity
  8
基準ﾚｲﾔｸﾞﾙｰﾌﾟ_01
  6
極太
 62
     4
370
    25
100
AcDbLine
 10
102.0
 20
37.69999999999998
 30
0.0
 11
102.0
 21
44.09999999999998
 31
0.0
  0
TEXT
  5
C4
330
1F
100
AcDbEntity
  8
基準ﾚｲﾔｸﾞﾙｰﾌﾟ_01
  6
極太
 62
     7
370
    18
100
AcDbText
 10
87.21124267578125
 20
39.43974685668945
 30
0.0
 40
3.200000047683716
  1
製図年月
 41
0.9815217635067905
  7
FX_VECTOR
 72
     5
 11
97.5312430858612
 21
39.43974685668945
 31
0.0
100
AcDbText
  0
TEXT
  5
C5
330
1F
100
AcDbEntity
  8
基準ﾚｲﾔｸﾞﾙｰﾌﾟ_01
  6
極太
 62
     7
370
    25
100
AcDbText
 10
156.13818359375
 20
34.52729034423828
 30
0.0
 40
3.200000047683716
  1
ホットスプルーブシュ
 41
0.9699152783253939
  7
FX_VECTOR
 72
     5
 11
182.298184633255
 21
34.52729034423828
 31
0.0
100
AcDbText
  0
TEXT
  5
C6
330
1F
100
AcDbEntity
  8
基準ﾚｲﾔｸﾞﾙｰﾌﾟ_01
  6
極太
 62
     7
370
    25
100
AcDbText
 10
156.13818359375
 20
21.21024703979492
 30
0.0
 40
3.200000047683716
  1
Ｈ－ＨＳＢ６５Ｓ７
 41
0.9707547410900861
  7
FX_VECTOR
 72
     5
 11
179.6581845283508
 21
21.21024703979492
 31
0.0
100
AcDbText
  0
TEXT
  5
C7
330
1F
100
AcDbEntity
  8
基準ﾚｲﾔｸﾞﾙｰﾌﾟ_01
  6
極太
 62
     7
370
    25
100
AcDbText
 10
103.82275390625
 20
39.54761123657227
 30
0.0
 40
3.200000047683716
  1
２０１２／１１／１５
 41
0.9699152783253939
  7
FX_VECTOR
 72
     5
 11
129.982754945755
 21
39.54761123657227
 31
0.0
100
AcDbText
  0
TEXT
  5
C8
330
1F
100
AcDbEntity
  8
基準ﾚｲﾔｸﾞﾙｰﾌﾟ_01
  6
極太
 62
     7
370
    25
100
AcDbText
 10
96.05633544921875
 20
31.45759963989258
 30
0.0
 40
3.200000047683716
  1
Ａ４　１／１
 41
0.9750000242143866
  7
FX_VECTOR
 72
     5
 11
111.6563360691071
 21
31.45759963989258
 31
0.0
100
AcDbText
  0
LINE
  5
C9
330
1F
100
AcDbEntity
  8
基準ﾚｲﾔｸﾞﾙｰﾌﾟ_01
  6
極太
 62
     3
370
    35
100
AcDbLine
 10
101.6253347672001
 20
165.5
 30
0.0
 11
87.2500000000001
 21
165.5
 31
0.0
  0
LINE
  5
CA
330
1F
100
AcDbEntity
  8
基準ﾚｲﾔｸﾞﾙｰﾌﾟ_01
  6
極太
 62
     3
370
    35
100
AcDbLine
 10
87.2500000000001
 20
166.7
 30
0.0
 11
101.6250192820001
 21
166.7
 31
0.0
  0
LINE
  5
CB
330
1F
100
AcDbEntity
  8
基準ﾚｲﾔｸﾞﾙｰﾌﾟ_01
  6
極太
 62
     3
370
    35
100
AcDbLine
 10
101.6253347672001
 20
167.0
 30
0.0
 11
87.2500000000001
 21
167.0
 31
0.0
  0
LINE
  5
CC
330
1F
100
AcDbEntity
  8
基準ﾚｲﾔｸﾞﾙｰﾌﾟ_01
  6
極太
 62
     3
370
    35
100
AcDbLine
 10
87.25000000000007
 20
168.2
 30
0.0
 11
101.6250192820001
 21
168.2
 31
0.0
  0
LINE
  5
CD
330
1F
100
AcDbEntity
  8
基準ﾚｲﾔｸﾞﾙｰﾌﾟ_01
  6
極太
 62
     3
370
    35
100
AcDbLine
 10
101.6253347672001
 20
168.5
 30
0.0
 11
87.25000000000007
 21
168.5
 31
0.0
  0
LINE
  5
CE
330
1F
100
AcDbEntity
  8
基準ﾚｲﾔｸﾞﾙｰﾌﾟ_01
  6
極太
 62
     3
370
    35
100
AcDbLine
 10
87.25000000000007
 20
169.7
 30
0.0
 11
101.6250192820001
 21
169.7
 31
0.0
  0
LINE
  5
CF
330
1F
100
AcDbEntity
  8
基準ﾚｲﾔｸﾞﾙｰﾌﾟ_01
  6
極太
 62
     3
370
    35
100
AcDbLine
 10
98.25000000000011
 20
127.6400000000002
 30
0.0
 11
98.25000000000013
 21
165.5
 31
0.0
  0
LINE
  5
D0
330
1F
100
AcDbEntity
  8
基準ﾚｲﾔｸﾞﾙｰﾌﾟ_01
  6
極太
 62
     3
370
    35
100
AcDbLine
 10
98.25000000000007
 20
166.7
 30
0.0
 11
98.25000000000007
 21
167.0
 31
0.0
  0
LINE
  5
D1
330
1F
100
AcDbEntity
  8
基準ﾚｲﾔｸﾞﾙｰﾌﾟ_01
  6
極太
 62
     3
370
    35
100
AcDbLine
 10
98.25000000000007
 20
168.2
 30
0.0
 11
98.25000000000007
 21
168.5
 31
0.0
  0
LINE
  5
D2
330
1F
100
AcDbEntity
  8
基準ﾚｲﾔｸﾞﾙｰﾌﾟ_01
  6
極太
 62
     3
370
    35
100
AcDbLine
 10
98.25000000000007
 20
169.7
 30
0.0
 11
98.25000000000007
 21
178.5
 31
0.0
  0
LINE
  5
D3
330
1F
100
AcDbEntity
  8
基準ﾚｲﾔｸﾞﾙｰﾌﾟ_01
  6
極太
 62
     3
370
    35
100
AcDbLine
 10
111.7500000000001
 20
178.5
 30
0.0
 11
111.7500000000001
 21
127.64
 31
0.0
  0
LINE
  5
D4
330
1F
100
AcDbEntity
  8
基準ﾚｲﾔｸﾞﾙｰﾌﾟ_01
  6
極太
 62
     3
370
    35
100
AcDbLine
 10
100.6000000000001
 20
125.1
 30
0.0
 11
100.6000000000001
 21
125.6
 31
0.0
  0
LINE
  5
D5
330
1F
100
AcDbEntity
  8
基準ﾚｲﾔｸﾞﾙｰﾌﾟ_01
  6
極太
 62
     3
370
    35
100
AcDbLine
 10
109.4000000000002
 20
125.6
 30
0.0
 11
109.4000000000002
 21
125.1
 31
0.0
  0
LINE
  5
D6
330
1F
100
AcDbEntity
  8
基準ﾚｲﾔｸﾞﾙｰﾌﾟ_01
  6
極太
 62
     3
370
    35
100
AcDbLine
 10
101.0000000000001
 20
125.6
 30
0.0
 11
101.0000000000001
 21
125.84
 31
0.0
  0
LINE
  5
D7
330
1F
100
AcDbEntity
  8
基準ﾚｲﾔｸﾞﾙｰﾌﾟ_01
  6
極太
 62
     3
370
    35
100
AcDbLine
 10
109.0000000000001
 20
125.84
 30
0.0
 11
109.0000000000001
 21
125.6
 31
0.0
  0
LINE
  5
D8
330
1F
100
AcDbEntity
  8
基準ﾚｲﾔｸﾞﾙｰﾌﾟ_01
  6
極太
 62
     3
370
    35
100
AcDbLine
 10
87.50000000000007
 20
182.0
 30
0.0
 11
87.50000000000007
 21
186.0
 31
0.0
  0
LINE
  5
D9
330
1F
100
AcDbEntity
  8
基準ﾚｲﾔｸﾞﾙｰﾌﾟ_01
  6
極太
 62
     3
370
    35
100
AcDbLine
 10
122.5000000000001
 20
186.0
 30
0.0
 11
122.5000000000001
 21
182.0
 31
0.0
  0
LINE
  5
DA
330
1F
100
AcDbEntity
  8
基準ﾚｲﾔｸﾞﾙｰﾌﾟ_01
  6
極太
 62
     3
370
    35
100
AcDbLine
 10
87.50000000000007
 20
186.0
 30
0.0
 11
88.00000000000007
 21
186.5
 31
0.0
  0
LINE
  5
DB
330
1F
100
AcDbEntity
  8
基準ﾚｲﾔｸﾞﾙｰﾌﾟ_01
  6
極太
 62
     3
370
    35
100
AcDbLine
 10
122.0000000000001
 20
186.5
 30
0.0
 11
122.5000000000001
 21
186.0
 31
0.0
  0
LINE
  5
DC
330
1F
100
AcDbEntity
  8
基準ﾚｲﾔｸﾞﾙｰﾌﾟ_01
  6
極太
 62
     3
370
    35
100
AcDbLine
 10
122.5000000000001
 20
182.0
 30
0.0
 11
122.0000000000001
 21
181.5
 31
0.0
  0
LINE
  5
DD
330
1F
100
AcDbEntity
  8
基準ﾚｲﾔｸﾞﾙｰﾌﾟ_01
  6
極太
 62
     3
370
    35
100
AcDbLine
 10
88.00000000000007
 20
181.5
 30
0.0
 11
87.50000000000007
 21
182.0
 31
0.0
  0
LINE
  5
DE
330
1F
100
AcDbEntity
  8
基準ﾚｲﾔｸﾞﾙｰﾌﾟ_01
  6
極太
 62
     3
370
    35
100
AcDbLine
 10
100.0000000000001
 20
126.0400000000006
 30
0.0
 11
100.0000000000001
 21
126.4400000000001
 31
0.0
  0
LINE
  5
DF
330
1F
100
AcDbEntity
  8
基準ﾚｲﾔｸﾞﾙｰﾌﾟ_01
  6
極太
 62
     3
370
    35
100
AcDbLine
 10
100.2000000000008
 20
125.84
 30
0.0
 11
100.0000000000001
 21
126.0400000000006
 31
0.0
  0
ARC
  5
E0
330
1F
100
AcDbEntity
  8
基準ﾚｲﾔｸﾞﾙｰﾌﾟ_01
  6
極太
 62
     3
370
    35
100
AcDbCircle
 10
121.5000000000001
 20
181.0
 30
0.0
 40
0.5
100
AcDbArc
 50
0.0
 51
90.0
  0
ARC
  5
E1
330
1F
100
AcDbEntity
  8
基準ﾚｲﾔｸﾞﾙｰﾌﾟ_01
  6
極太
 62
     3
370
    35
100
AcDbCircle
 10
88.50000000000007
 20
181.0
 30
0.0
 40
0.5
100
AcDbArc
 50
90.0
 51
180.0
  0
ARC
  5
E2
330
1F
100
AcDbEntity
  8
基準ﾚｲﾔｸﾞﾙｰﾌﾟ_01
  6
極太
 62
     3
370
    35
100
AcDbCircle
 10
121.5000000000001
 20
179.0
 30
0.0
 40
0.5
100
AcDbArc
 50
270.0
 51
0.0
  0
ARC
  5
E3
330
1F
100
AcDbEntity
  8
基準ﾚｲﾔｸﾞﾙｰﾌﾟ_01
  6
極太
 62
     3
370
    35
100
AcDbCircle
 10
88.50000000000007
 20
179.0
 30
0.0
 40
0.5
100
AcDbArc
 50
180.0
 51
270.0
  0
LINE
  5
E4
330
1F
100
AcDbEntity
  8
基準ﾚｲﾔｸﾞﾙｰﾌﾟ_01
  6
極太
 62
     3
370
    35
100
AcDbLine
 10
88.00000000000007
 20
179.0
 30
0.0
 11
88.00000000000007
 21
181.0
 31
0.0
  0
LINE
  5
E5
330
1F
100
AcDbEntity
  8
基準ﾚｲﾔｸﾞﾙｰﾌﾟ_01
  6
極太
 62
     3
370
    35
100
AcDbLine
 10
122.0000000000001
 20
181.0
 30
0.0
 11
122.0000000000001
 21
179.0
 31
0.0
  0
INSERT
  5
E9
330
1F
100
AcDbEntity
  8
基準ﾚｲﾔｸﾞﾙｰﾌﾟ_01
  6
極太
 62
     3
370
    35
100
AcDbBlockReference
  2
BLKF022
 10
0.0
 20
0.0
 30
0.0
  0
INSERT
  5
FD
330
1F
100
AcDbEntity
  8
基準ﾚｲﾔｸﾞﾙｰﾌﾟ_01
  6
極太
 62
     3
370
    35
100
AcDbBlockReference
  2
BLKF023
 10
0.0
 20
0.0
 30
0.0
  0
INSERT
  5
111
330
1F
100
AcDbEntity
  8
基準ﾚｲﾔｸﾞﾙｰﾌﾟ_01
  6
極太
 62
     3
370
    35
100
AcDbBlockReference
  2
BLKF024
 10
0.0
 20
0.0
 30
0.0
  0
LINE
  5
122
330
1F
100
AcDbEntity
  8
基準ﾚｲﾔｸﾞﾙｰﾌﾟ_01
  6
極太
 62
     3
370
    35
100
AcDbLine
 10
101.0200000000001
 20
125.1
 30
0.0
 11
101.0200000000001
 21
120.995714514652
 31
0.0
  0
LINE
  5
123
330
1F
100
AcDbEntity
  8
基準ﾚｲﾔｸﾞﾙｰﾌﾟ_01
  6
極太
 62
     3
370
    35
100
AcDbLine
 10
101.3852846404002
 20
121.7176126803764
 30
0.0
 11
101.3852846404002
 21
125.1
 31
0.0
  0
LINE
  5
124
330
1F
100
AcDbEntity
  8
基準ﾚｲﾔｸﾞﾙｰﾌﾟ_01
  6
極太
 62
     3
370
    35
100
AcDbLine
 10
104.6347153596001
 20
125.1
 30
0.0
 11
101.3852846404002
 21
125.1
 31
0.0
  0
LINE
  5
125
330
1F
100
AcDbEntity
  8
基準ﾚｲﾔｸﾞﾙｰﾌﾟ_01
  6
極太
 62
     3
370
    35
100
AcDbLine
 10
104.6347153596001
 20
125.1
 30
0.0
 11
104.6347153596001
 21
121.723175853831
 31
0.0
  0
LINE
  5
126
330
1F
100
AcDbEntity
  8
基準ﾚｲﾔｸﾞﾙｰﾌﾟ_01
  6
極太
 62
     3
370
    35
100
AcDbLine
 10
105.3652846404002
 20
121.723175853831
 30
0.0
 11
105.3652846404002
 21
125.1
 31
0.0
  0
LINE
  5
127
330
1F
100
AcDbEntity
  8
基準ﾚｲﾔｸﾞﾙｰﾌﾟ_01
  6
極太
 62
     3
370
    35
100
AcDbLine
 10
108.6147153596002
 20
125.1
 30
0.0
 11
105.3652846404002
 21
125.1
 31
0.0
  0
LINE
  5
128
330
1F
100
AcDbEntity
  8
基準ﾚｲﾔｸﾞﾙｰﾌﾟ_01
  6
極太
 62
     3
370
    35
100
AcDbLine
 10
108.6147153596002
 20
125.1
 30
0.0
 11
108.6147153596002
 21
121.7176126803765
 31
0.0
  0
LINE
  5
129
330
1F
100
AcDbEntity
  8
基準ﾚｲﾔｸﾞﾙｰﾌﾟ_01
  6
極太
 62
     3
370
    35
100
AcDbLine
 10
108.9800000000001
 20
120.995714514652
 30
0.0
 11
108.9800000000001
 21
125.1
 31
0.0
  0
LINE
  5
12A
330
1F
100
AcDbEntity
  8
基準ﾚｲﾔｸﾞﾙｰﾌﾟ_01
  6
極太
 62
     3
370
    35
100
AcDbLine
 10
109.4000000000002
 20
125.1
 30
0.0
 11
108.9800000000001
 21
125.1
 31
0.0
  0
LINE
  5
12B
330
1F
100
AcDbEntity
  8
基準ﾚｲﾔｸﾞﾙｰﾌﾟ_01
  6
極太
 62
     3
370
    35
100
AcDbLine
 10
101.0200000000001
 20
125.1
 30
0.0
 11
100.6000000000001
 21
125.1
 31
0.0
  0
LINE
  5
12C
330
1F
100
AcDbEntity
  8
基準ﾚｲﾔｸﾞﾙｰﾌﾟ_01
  6
極太
 62
     3
370
    35
100
AcDbLine
 10
101.1894882234002
 20
125.6
 30
0.0
 11
100.6000000000001
 21
125.6
 31
0.0
  0
LINE
  5
12D
330
1F
100
AcDbEntity
  8
基準ﾚｲﾔｸﾞﾙｰﾌﾟ_01
  6
極太
 62
     3
370
    35
100
AcDbLine
 10
109.4000000000002
 20
125.6
 30
0.0
 11
101.1894882234002
 21
125.6
 31
0.0
  0
LINE
  5
12E
330
1F
100
AcDbEntity
  8
基準ﾚｲﾔｸﾞﾙｰﾌﾟ_01
  6
極太
 62
     3
370
    35
100
AcDbLine
 10
108.4975000000001
 20
113.5
 30
0.0
 11
101.5025
 21
113.5
 31
0.0
  0
LINE
  5
12F
330
1F
100
AcDbEntity
  8
基準ﾚｲﾔｸﾞﾙｰﾌﾟ_01
  6
極太
 62
     3
370
    35
100
AcDbLine
 10
122.5000000000001
 20
182.0
 30
0.0
 11
87.50000000000007
 21
182.0
 31
0.0
  0
LINE
  5
130
330
1F
100
AcDbEntity
  8
基準ﾚｲﾔｸﾞﾙｰﾌﾟ_01
  6
極太
 62
     3
370
    35
100
AcDbLine
 10
87.50000000000007
 20
186.0
 30
0.0
 11
122.5000000000001
 21
186.0
 31
0.0
  0
LINE
  5
131
330
1F
100
AcDbEntity
  8
基準ﾚｲﾔｸﾞﾙｰﾌﾟ_01
  6
極太
 62
     3
370
    35
100
AcDbLine
 10
122.0000000000001
 20
186.5
 30
0.0
 11
88.00000000000007
 21
186.5
 31
0.0
  0
LINE
  5
132
330
1F
100
AcDbEntity
  8
基準ﾚｲﾔｸﾞﾙｰﾌﾟ_01
  6
極太
 62
     3
370
    35
100
AcDbLine
 10
88.00000000000007
 20
181.5
 30
0.0
 11
122.0000000000001
 21
181.5
 31
0.0
  0
LINE
  5
133
330
1F
100
AcDbEntity
  8
基準ﾚｲﾔｸﾞﾙｰﾌﾟ_01
  6
極太
 62
     3
370
    35
100
AcDbLine
 10
100.2000000000008
 20
125.84
 30
0.0
 11
109.7999999999995
 21
125.84
 31
0.0
  0
LINE
  5
134
330
1F
100
AcDbEntity
  8
基準ﾚｲﾔｸﾞﾙｰﾌﾟ_01
  6
極太
 62
     3
370
    35
100
AcDbLine
 10
88.50000000000007
 20
178.5
 30
0.0
 11
121.5000000000001
 21
178.5
 31
0.0
  0
LINE
  5
135
330
1F
100
AcDbEntity
  8
基準ﾚｲﾔｸﾞﾙｰﾌﾟ_01
  6
極太
 62
     3
370
    35
100
AcDbLine
 10
88.00000000000007
 20
181.0
 30
0.0
 11
122.0000000000001
 21
181.0
 31
0.0
  0
LINE
  5
136
330
1F
100
AcDbEntity
  8
基準ﾚｲﾔｸﾞﾙｰﾌﾟ_01
  6
極太
 62
     3
370
    35
100
AcDbLine
 10
122.0000000000001
 20
179.0
 30
0.0
 11
88.00000000000007
 21
179.0
 31
0.0
  0
LINE
  5
138
330
1F
100
AcDbEntity
  8
基準ﾚｲﾔｸﾞﾙｰﾌﾟ_01
  6
HIDDEN
 62
     3
370
    35
100
AcDbLine
 10
103.2679491924001
 20
135.9
 30
0.0
 11
103.0000000000001
 21
135.9
 31
0.0
  0
LINE
  5
139
330
1F
100
AcDbEntity
  8
基準ﾚｲﾔｸﾞﾙｰﾌﾟ_01
  6
HIDDEN
 62
     3
370
    35
100
AcDbLine
 10
107.0000000000001
 20
135.9
 30
0.0
 11
103.0000000000001
 21
135.9
 31
0.0
  0
LINE
  5
13A
330
1F
100
AcDbEntity
  8
基準ﾚｲﾔｸﾞﾙｰﾌﾟ_01
  6
HIDDEN
 62
     3
370
    35
100
AcDbLine
 10
104.1339745962001
 20
132.1679491924
 30
0.0
 11
106.0000000000001
 21
132.1679491924
 31
0.0
  0
LINE
  5
13B
330
1F
100
AcDbEntity
  8
基準ﾚｲﾔｸﾞﾙｰﾌﾟ_01
  6
HIDDEN
 62
     3
370
    35
100
AcDbLine
 10
104.0000000000001
 20
132.1679491924
 30
0.0
 11
104.1339745962001
 21
132.1679491924
 31
0.0
  0
LINE
  5
13C
330
1F
100
AcDbEntity
  8
基準ﾚｲﾔｸﾞﾙｰﾌﾟ_01
  6
HIDDEN
 62
     3
370
    35
100
AcDbLine
 10
104.0000000000001
 20
123.03
 30
0.0
 11
106.0000000000001
 21
123.03
 31
0.0
  0
LINE
  5
13D
330
1F
100
AcDbEntity
  8
基準ﾚｲﾔｸﾞﾙｰﾌﾟ_01
  6
HIDDEN
 62
     3
370
    35
100
AcDbLine
 10
107.0000000000001
 20
189.6833461736
 30
0.0
 11
103.0000000000001
 21
189.6833461736
 31
0.0
  0
LINE
  5
13E
330
1F
100
AcDbEntity
  8
基準ﾚｲﾔｸﾞﾙｰﾌﾟ_01
  6
HIDDEN
 62
     3
370
    35
100
AcDbLine
 10
98.25000000000007
 20
165.5
 30
0.0
 11
98.25000000000007
 21
166.7
 31
0.0
  0
LINE
  5
13F
330
1F
100
AcDbEntity
  8
基準ﾚｲﾔｸﾞﾙｰﾌﾟ_01
  6
HIDDEN
 62
     3
370
    35
100
AcDbLine
 10
98.25000000000007
 20
167.0
 30
0.0
 11
98.25000000000007
 21
168.2
 31
0.0
  0
LINE
  5
140
330
1F
100
AcDbEntity
  8
基準ﾚｲﾔｸﾞﾙｰﾌﾟ_01
  6
HIDDEN
 62
     3
370
    35
100
AcDbLine
 10
98.25000000000007
 20
168.5
 30
0.0
 11
98.25000000000007
 21
169.7
 31
0.0
  0
LINE
  5
141
330
1F
100
AcDbEntity
  8
基準ﾚｲﾔｸﾞﾙｰﾌﾟ_01
  6
HIDDEN
 62
     3
370
    35
100
AcDbLine
 10
107.0000000000001
 20
135.9
 30
0.0
 11
106.0000000000001
 21
132.1679491924
 31
0.0
  0
LINE
  5
142
330
1F
100
AcDbEntity
  8
基準ﾚｲﾔｸﾞﾙｰﾌﾟ_01
  6
HIDDEN
 62
     3
370
    35
100
AcDbLine
 10
104.0000000000001
 20
132.1679491924
 30
0.0
 11
103.0000000000001
 21
135.9
 31
0.0
  0
LINE
  5
143
330
1F
100
AcDbEntity
  8
基準ﾚｲﾔｸﾞﾙｰﾌﾟ_01
  6
HIDDEN
 62
     3
370
    35
100
AcDbLine
 10
103.1662330366001
 20
113.5
 30
0.0
 11
104.0000000000001
 21
123.03
 31
0.0
  0
LINE
  5
144
330
1F
100
AcDbEntity
  8
基準ﾚｲﾔｸﾞﾙｰﾌﾟ_01
  6
HIDDEN
 62
     3
370
    35
100
AcDbLine
 10
106.0000000000001
 20
123.03
 30
0.0
 11
106.8337669634002
 21
113.5
 31
0.0
  0
LINE
  5
145
330
1F
100
AcDbEntity
  8
基準ﾚｲﾔｸﾞﾙｰﾌﾟ_01
  6
HIDDEN
 62
     3
370
    35
100
AcDbLine
 10
106.0000000000001
 20
132.1679491924
 30
0.0
 11
106.0000000000001
 21
123.03
 31
0.0
  0
LINE
  5
146
330
1F
100
AcDbEntity
  8
基準ﾚｲﾔｸﾞﾙｰﾌﾟ_01
  6
HIDDEN
 62
     3
370
    35
100
AcDbLine
 10
104.0000000000001
 20
123.03
 30
0.0
 11
104.0000000000001
 21
132.1679491924
 31
0.0
  0
ARC
  5
147
330
1F
100
AcDbEntity
  8
基準ﾚｲﾔｸﾞﾙｰﾌﾟ_01
  6
HIDDEN
 62
     3
370
    35
100
AcDbCircle
 10
105.0000000000001
 20
200.5
 30
0.0
 40
11.00000000000005
100
AcDbArc
 50
234.9031987724001
 51
259.5243183036
  0
ARC
  5
148
330
1F
100
AcDbEntity
  8
基準ﾚｲﾔｸﾞﾙｰﾌﾟ_01
  6
HIDDEN
 62
     3
370
    35
100
AcDbCircle
 10
105.0000000000001
 20
200.5
 30
0.0
 40
11.00000000000005
100
AcDbArc
 50
280.4756816964001
 51
305.0968012276
  0
LINE
  5
149
330
1F
100
AcDbEntity
  8
基準ﾚｲﾔｸﾞﾙｰﾌﾟ_01
  6
HIDDEN
 62
     3
370
    35
100
AcDbLine
 10
107.0000000000001
 20
189.6833461736
 30
0.0
 11
107.0000000000001
 21
135.8999999999999
 31
0.0
  0
LINE
  5
14A
330
1F
100
AcDbEntity
  8
基準ﾚｲﾔｸﾞﾙｰﾌﾟ_01
  6
HIDDEN
 62
     3
370
    35
100
AcDbLine
 10
103.0000000000001
 20
135.9000000000001
 30
0.0
 11
103.0000000000001
 21
189.6833461736
 31
0.0
  0
LINE
  5
14B
330
1F
100
AcDbEntity
  8
基準ﾚｲﾔｸﾞﾙｰﾌﾟ_01
  6
DASHDOT
 62
     7
370
    18
100
AcDbLine
 10
105.0000000000001
 20
191.5
 30
0.0
 11
105.0000000000001
 21
113.5
 31
0.0
  0
LINE
  5
14C
330
1F
100
AcDbEntity
  8
基準ﾚｲﾔｸﾞﾙｰﾌﾟ_01
  6
極太
 62
     3
370
    35
100
AcDbLine
 10
104.6463700223703
 20
121.723175853831
 30
0.0
 11
105.3536299776299
 21
121.723175853831
 31
0.0
  0
LINE
  5
14D
330
1F
100
AcDbEntity
  8
基準ﾚｲﾔｸﾞﾙｰﾌﾟ_01
  6
極太
 62
     3
370
    35
100
AcDbLine
 10
101.0200000000001
 20
121.7176126803764
 30
0.0
 11
101.3852846404002
 21
121.7176126803764
 31
0.0
  0
LINE
  5
14E
330
1F
100
AcDbEntity
  8
基準ﾚｲﾔｸﾞﾙｰﾌﾟ_01
  6
極太
 62
     3
370
    35
100
AcDbLine
 10
108.6147153596002
 20
121.7176126803765
 30
0.0
 11
108.9800000000001
 21
121.7176126803765
 31
0.0
  0
LINE
  5
14F
330
1F
100
AcDbEntity
  8
基準ﾚｲﾔｸﾞﾙｰﾌﾟ_01
  6
極太
 62
     3
370
    35
100
AcDbLine
 10
110.0000000000001
 20
126.4400000000001
 30
0.0
 11
100.0000000000001
 21
126.4400000000001
 31
0.0
  0
LINE
  5
150
330
1F
100
AcDbEntity
  8
基準ﾚｲﾔｸﾞﾙｰﾌﾟ_01
  6
極太
 62
     3
370
    35
100
AcDbLine
 10
110.0000000000001
 20
126.0400000000003
 30
0.0
 11
100.0000000000001
 21
126.0400000000003
 31
0.0
  0
LINE
  5
151
330
1F
100
AcDbEntity
  8
基準ﾚｲﾔｸﾞﾙｰﾌﾟ_01
  6
極太
 62
     3
370
    35
100
AcDbLine
 10
110.0000000000001
 20
126.0400000000006
 30
0.0
 11
110.0000000000001
 21
126.4400000000001
 31
0.0
  0
LINE
  5
152
330
1F
100
AcDbEntity
  8
基準ﾚｲﾔｸﾞﾙｰﾌﾟ_01
  6
極太
 62
     3
370
    35
100
AcDbLine
 10
109.7999999999995
 20
125.84
 30
0.0
 11
110.0000000000001
 21
126.0400000000006
 31
0.0
  0
LINE
  5
153
330
1F
100
AcDbEntity
  8
基準ﾚｲﾔｸﾞﾙｰﾌﾟ_01
  6
極太
 62
     3
370
    35
100
AcDbLine
 10
111.5000000000001
 20
127.1400000000001
 30
0.0
 11
111.5000000000001
 21
126.4400000000001
 31
0.0
  0
LINE
  5
154
330
1F
100
AcDbEntity
  8
基準ﾚｲﾔｸﾞﾙｰﾌﾟ_01
  6
極太
 62
     3
370
    35
100
AcDbLine
 10
98.50000000000014
 20
127.1400000000001
 30
0.0
 11
98.50000000000011
 21
126.4400000000001
 31
0.0
  0
LINE
  5
155
330
1F
100
AcDbEntity
  8
基準ﾚｲﾔｸﾞﾙｰﾌﾟ_01
  6
極太
 62
     3
370
    35
100
AcDbLine
 10
98.50000000000014
 20
126.4400000000001
 30
0.0
 11
111.5000000000001
 21
126.4400000000001
 31
0.0
  0
LINE
  5
156
330
1F
100
AcDbEntity
  8
基準ﾚｲﾔｸﾞﾙｰﾌﾟ_01
  6
極太
 62
     3
370
    35
100
AcDbLine
 10
98.50000000000014
 20
127.1400000000001
 30
0.0
 11
111.5000000000001
 21
127.1400000000001
 31
0.0
  0
INSERT
  5
15A
330
1F
100
AcDbEntity
  8
基準ﾚｲﾔｸﾞﾙｰﾌﾟ_01
  6
極太
 62
     3
370
    35
100
AcDbBlockReference
  2
BLKF025
 10
0.0
 20
0.0
 30
0.0
  0
INSERT
  5
1B0
330
1F
100
AcDbEntity
  8
基準ﾚｲﾔｸﾞﾙｰﾌﾟ_01
  6
極太
 62
     3
370
    35
100
AcDbBlockReference
  2
BLKF026
 10
0.0
 20
0.0
 30
0.0
  0
LINE
  5
204
330
1F
100
AcDbEntity
  8
GR1_01
  6
極太
 62
     3
370
    25
100
AcDbLine
 10
108.4975
 20
120.1600000000001
 30
0.0
 11
108.4975000000001
 21
113.5
 31
0.0
  0
LINE
  5
205
330
1F
100
AcDbEntity
  8
GR1_01
  6
極太
 62
     3
370
    25
100
AcDbLine
 10
101.5025
 20
113.5
 30
0.0
 11
101.5025
 21
120.1600000000001
 31
0.0
  0
LINE
  5
206
330
1F
100
AcDbEntity
  8
GR1_01
  6
極太
 62
     3
370
    25
100
AcDbLine
 10
108.9800000000001
 20
120.995714514652
 30
0.0
 11
108.4975000000001
 21
120.1600000000001
 31
0.0
  0
LINE
  5
207
330
1F
100
AcDbEntity
  8
GR1_01
  6
極太
 62
     3
370
    25
100
AcDbLine
 10
101.5025000000001
 20
120.1600000000001
 30
0.0
 11
101.0200000000001
 21
120.995714514652
 31
0.0
  0
LINE
  5
208
330
1F
100
AcDbEntity
  8
GR1_01
  6
極太
 62
     3
370
    25
100
AcDbLine
 10
108.4975000000001
 20
120.1600000000001
 30
0.0
 11
101.5025
 21
120.1600000000001
 31
0.0
  0
LINE
  5
209
330
1F
100
AcDbEntity
  8
基準ﾚｲﾔｸﾞﾙｰﾌﾟ_01
  6
極太
 62
     3
370
    35
100
AcDbLine
 10
98.25000000000014
 20
127.6400000000001
 30
0.0
 11
98.75000000000009
 21
127.1400000000002
 31
0.0
  0
LINE
  5
20A
330
1F
100
AcDbEntity
  8
基準ﾚｲﾔｸﾞﾙｰﾌﾟ_01
  6
極太
 62
     3
370
    35
100
AcDbLine
 10
111.2500000000001
 20
127.14
 30
0.0
 11
111.7500000000001
 21
127.64
 31
0.0
  0
LINE
  5
20B
330
1F
100
AcDbEntity
  8
基準ﾚｲﾔｸﾞﾙｰﾌﾟ_01
  6
極太
 62
     3
370
    35
100
AcDbLine
 10
98.25000000000011
 20
127.6400000000002
 30
0.0
 11
111.7500000000001
 21
127.6400000000002
 31
0.0
  0
SPLINE
  5
20C
330
1F
100
AcDbEntity
  8
基準ﾚｲﾔｸﾞﾙｰﾌﾟ_01
  6
極太
 62
     3
370
    35
100
AcDbSpline
210
0.0
220
0.0
230
1.0
 70
     8
 71
     3
 72
    12
 73
     8
 74
     0
 42
0.0000000001
 43
0.0000000001
 12
1.0
 22
0.0
 32
0.0
 13
1.0
 23
0.0
 33
0.0
 40
0.0
 40
0.0
 40
0.0
 40
0.0
 40
0.2141664111039345
 40
0.4283122888863458
 40
0.6429906880405766
 40
0.8580189127856988
 40
0.9999999999999999
 40
0.9999999999999999
 40
0.9999999999999999
 40
0.9999999999999999
 10
102.1579750176213
 20
166.0999999999542
 30
0.0
 10
102.151950912375
 20
166.0327166346848
 30
0.0
 10
102.1399032794466
 20
165.8981563549758
 30
0.0
 10
102.0465002163457
 20
165.718317578883
 30
0.0
 10
101.9103619479817
 20
165.5837732505002
 30
0.0
 10
101.7611321435534
 20
165.5071690895834
 30
0.0
 10
101.6637176259005
 20
165.507478969759
 30
0.0
 10
101.6249762859312
 20
165.5076022077888
 30
0.0
  0
SPLINE
  5
20D
330
1F
100
AcDbEntity
  8
基準ﾚｲﾔｸﾞﾙｰﾌﾟ_01
  6
極太
 62
     3
370
    35
100
AcDbSpline
210
0.0
220
0.0
230
1.0
 70
     8
 71
     3
 72
    13
 73
     9
 74
     0
 42
0.0000000001
 43
0.0000000001
 12
1.0
 22
0.0
 32
0.0
 13
1.0
 23
0.0
 33
0.0
 40
0.0
 40
0.0
 40
0.0
 40
0.0
 40
0.0028654380057735
 40
0.2167885313140906
 40
0.4306987907177193
 40
0.6453370619993273
 40
0.8603174909326734
 40
1.0
 40
1.0
 40
1.0
 40
1.0
 10
101.6250832451612
 20
166.6995541743894
 30
0.0
 10
101.6258427782753
 20
166.6997025361532
 30
0.0
 10
101.683306268302
 20
166.7109270431236
 30
0.0
 10
101.803749459773
 20
166.6711447818148
 30
0.0
 10
101.9619198027202
 20
166.5778405533947
 30
0.0
 10
102.0839290347063
 20
166.4227706962612
 30
0.0
 10
102.1487748649489
 20
166.254986440972
 30
0.0
 10
102.1553754176519
 20
166.1437930501
 30
0.0
 10
102.1579750176213
 20
166.0999999999542
 30
0.0
  0
SPLINE
  5
20E
330
1F
100
AcDbEntity
  8
基準ﾚｲﾔｸﾞﾙｰﾌﾟ_01
  6
極太
 62
     3
370
    35
100
AcDbSpline
210
0.0
220
0.0
230
1.0
 70
     8
 71
     3
 72
    12
 73
     8
 74
     0
 42
0.0000000001
 43
0.0000000001
 12
1.0
 22
0.0
 32
0.0
 13
1.0
 23
0.0
 33
0.0
 40
0.0
 40
0.0
 40
0.0
 40
0.0
 40
0.2141664111039338
 40
0.4283122888863442
 40
0.6429906880405798
 40
0.858018912785698
 40
1.0
 40
1.0
 40
1.0
 40
1.0
 10
102.1579750176213
 20
167.5999999999542
 30
0.0
 10
102.151950912375
 20
167.5327166346848
 30
0.0
 10
102.1399032794466
 20
167.3981563549758
 30
0.0
 10
102.0465002163457
 20
167.218317578883
 30
0.0
 10
101.9103619479817
 20
167.0837732505002
 30
0.0
 10
101.7611321435534
 20
167.0071690895834
 30
0.0
 10
101.6637176259005
 20
167.007478969759
 30
0.0
 10
101.6249762859312
 20
167.0076022077888
 30
0.0
  0
SPLINE
  5
20F
330
1F
100
AcDbEntity
  8
基準ﾚｲﾔｸﾞﾙｰﾌﾟ_01
  6
極太
 62
     3
370
    35
100
AcDbSpline
210
0.0
220
0.0
230
1.0
 70
     8
 71
     3
 72
    13
 73
     9
 74
     0
 42
0.0000000001
 43
0.0000000001
 12
1.0
 22
0.0
 32
0.0
 13
1.0
 23
0.0
 33
0.0
 40
0.0
 40
0.0
 40
0.0
 40
0.0
 40
0.0028654380057747
 40
0.2167885313140915
 40
0.4306987907177214
 40
0.6453370619993285
 40
0.8603174909326737
 40
0.9999999999999999
 40
0.9999999999999999
 40
0.9999999999999999
 40
0.9999999999999999
 10
101.6250832451612
 20
168.1995541743894
 30
0.0
 10
101.6258427782753
 20
168.1997025361532
 30
0.0
 10
101.683306268302
 20
168.2109270431236
 30
0.0
 10
101.803749459773
 20
168.1711447818148
 30
0.0
 10
101.9619198027202
 20
168.0778405533947
 30
0.0
 10
102.0839290347063
 20
167.9227706962612
 30
0.0
 10
102.1487748649489
 20
167.754986440972
 30
0.0
 10
102.1553754176519
 20
167.6437930501
 30
0.0
 10
102.1579750176213
 20
167.5999999999542
 30
0.0
  0
SPLINE
  5
210
330
1F
100
AcDbEntity
  8
基準ﾚｲﾔｸﾞﾙｰﾌﾟ_01
  6
極太
 62
     3
370
    35
100
AcDbSpline
210
0.0
220
0.0
230
1.0
 70
     8
 71
     3
 72
    12
 73
     8
 74
     0
 42
0.0000000001
 43
0.0000000001
 12
1.0
 22
0.0
 32
0.0
 13
1.0
 23
0.0
 33
0.0
 40
0.0
 40
0.0
 40
0.0
 40
0.0
 40
0.2141664111039346
 40
0.4283122888863456
 40
0.6429906880405755
 40
0.8580189127856976
 40
1.0
 40
1.0
 40
1.0
 40
1.0
 10
102.1579750176213
 20
169.0999999999542
 30
0.0
 10
102.151950912375
 20
169.0327166346848
 30
0.0
 10
102.1399032794466
 20
168.8981563549758
 30
0.0
 10
102.0465002163458
 20
168.718317578883
 30
0.0
 10
101.9103619479817
 20
168.5837732505002
 30
0.0
 10
101.7611321435534
 20
168.5071690895834
 30
0.0
 10
101.6637176259005
 20
168.507478969759
 30
0.0
 10
101.6249762859312
 20
168.5076022077888
 30
0.0
  0
SPLINE
  5
211
330
1F
100
AcDbEntity
  8
基準ﾚｲﾔｸﾞﾙｰﾌﾟ_01
  6
極太
 62
     3
370
    35
100
AcDbSpline
210
0.0
220
0.0
230
1.0
 70
     8
 71
     3
 72
    13
 73
     9
 74
     0
 42
0.0000000001
 43
0.0000000001
 12
1.0
 22
0.0
 32
0.0
 13
1.0
 23
0.0
 33
0.0
 40
0.0
 40
0.0
 40
0.0
 40
0.0
 40
0.0028654380057759
 40
0.2167885313140917
 40
0.4306987907177219
 40
0.6453370619993365
 40
0.8603174909326736
 40
1.0
 40
1.0
 40
1.0
 40
1.0
 10
101.6250832451612
 20
169.6995541743894
 30
0.0
 10
101.6258427782753
 20
169.699702536153
 30
0.0
 10
101.683306268302
 20
169.7109270431236
 30
0.0
 10
101.803749459773
 20
169.6711447818148
 30
0.0
 10
101.9619198027202
 20
169.5778405533947
 30
0.0
 10
102.0839290347063
 20
169.4227706962612
 30
0.0
 10
102.1487748649489
 20
169.254986440972
 30
0.0
 10
102.1553754176519
 20
169.1437930501
 30
0.0
 10
102.1579750176213
 20
169.0999999999542
 30
0.0
  0
SPLINE
  5
212
330
1F
100
AcDbEntity
  8
基準ﾚｲﾔｸﾞﾙｰﾌﾟ_01
  6
HIDDEN
 62
     3
370
    35
100
AcDbSpline
210
0.0
220
0.0
230
1.0
 70
     8
 71
     3
 72
    17
 73
    13
 74
     0
 42
0.0000000001
 43
0.0000000001
 12
1.0
 22
0.0
 32
0.0
 13
1.0
 23
0.0
 33
0.0
 40
0.0
 40
0.0
 40
0.0
 40
0.0
 40
0.0362424042102391
 40
0.1431896194538125
 40
0.2502897544573001
 40
0.3577588946478563
 40
0.4652399377478936
 40
0.5723532599365858
 40
0.6792942101888413
 40
0.7865258845257692
 40
0.8940584049505252
 40
1.0
 40
1.0
 40
1.0
 40
1.0
 10
101.6249762859312
 20
165.5076022077888
 30
0.0
 10
101.6052454312686
 20
165.5055195831116
 30
0.0
 10
101.5272910672523
 20
165.4972913697382
 30
0.0
 10
101.3967671747357
 20
165.5524752674672
 30
0.0
 10
101.25669950195
 20
165.667484464762
 30
0.0
 10
101.1586183698691
 20
165.8359465534028
 30
0.0
 10
101.1123243978465
 20
166.0331293533658
 30
0.0
 10
101.1222783625202
 20
166.237788064134
 30
0.0
 10
101.1872005030969
 20
166.4269595928222
 30
0.0
 10
101.3010801351187
 20
166.5783011335202
 30
0.0
 10
101.4520199401851
 20
166.6806245676114
 30
0.0
 10
101.5676828043888
 20
166.6932757332556
 30
0.0
 10
101.6250832451612
 20
166.6995541743894
 30
0.0
  0
SPLINE
  5
213
330
1F
100
AcDbEntity
  8
基準ﾚｲﾔｸﾞﾙｰﾌﾟ_01
  6
HIDDEN
 62
     3
370
    35
100
AcDbSpline
210
0.0
220
0.0
230
1.0
 70
     8
 71
     3
 72
    17
 73
    13
 74
     0
 42
0.0000000001
 43
0.0000000001
 12
1.0
 22
0.0
 32
0.0
 13
1.0
 23
0.0
 33
0.0
 40
0.0
 40
0.0
 40
0.0
 40
0.0
 40
0.0362424042102398
 40
0.1431896194538115
 40
0.2502897544573017
 40
0.3577588946478576
 40
0.4652399377478909
 40
0.5723532599365863
 40
0.6792942101888415
 40
0.7865258845257688
 40
0.894058404950524
 40
1.0
 40
1.0
 40
1.0
 40
1.0
 10
101.6249762859312
 20
167.0076022077888
 30
0.0
 10
101.6052454312686
 20
167.0055195831116
 30
0.0
 10
101.5272910672523
 20
166.9972913697382
 30
0.0
 10
101.3967671747357
 20
167.0524752674672
 30
0.0
 10
101.25669950195
 20
167.167484464762
 30
0.0
 10
101.1586183698691
 20
167.3359465534026
 30
0.0
 10
101.1123243978465
 20
167.5331293533658
 30
0.0
 10
101.1222783625202
 20
167.737788064134
 30
0.0
 10
101.1872005030969
 20
167.9269595928222
 30
0.0
 10
101.3010801351187
 20
168.0783011335202
 30
0.0
 10
101.4520199401851
 20
168.1806245676114
 30
0.0
 10
101.5676828043888
 20
168.1932757332556
 30
0.0
 10
101.6250832451612
 20
168.1995541743894
 30
0.0
  0
SPLINE
  5
214
330
1F
100
AcDbEntity
  8
基準ﾚｲﾔｸﾞﾙｰﾌﾟ_01
  6
HIDDEN
 62
     3
370
    35
100
AcDbSpline
210
0.0
220
0.0
230
1.0
 70
     8
 71
     3
 72
    17
 73
    13
 74
     0
 42
0.0000000001
 43
0.0000000001
 12
1.0
 22
0.0
 32
0.0
 13
1.0
 23
0.0
 33
0.0
 40
0.0
 40
0.0
 40
0.0
 40
0.0
 40
0.036242404210239
 40
0.1431896194538113
 40
0.2502897544573013
 40
0.3577588946478574
 40
0.4652399377478907
 40
0.5723532599365861
 40
0.6792942101888416
 40
0.7865258845257687
 40
0.8940584049505248
 40
1.0
 40
1.0
 40
1.0
 40
1.0
 10
101.6249762859312
 20
168.5076022077888
 30
0.0
 10
101.6052454312686
 20
168.5055195831116
 30
0.0
 10
101.5272910672523
 20
168.4972913697382
 30
0.0
 10
101.3967671747357
 20
168.5524752674672
 30
0.0
 10
101.25669950195
 20
168.667484464762
 30
0.0
 10
101.1586183698691
 20
168.8359465534028
 30
0.0
 10
101.1123243978465
 20
169.0331293533658
 30
0.0
 10
101.1222783625202
 20
169.237788064134
 30
0.0
 10
101.1872005030969
 20
169.4269595928222
 30
0.0
 10
101.3010801351187
 20
169.5783011335202
 30
0.0
 10
101.4520199401851
 20
169.6806245676114
 30
0.0
 10
101.5676828043888
 20
169.6932757332556
 30
0.0
 10
101.6250832451612
 20
169.6995541743894
 30
0.0
  0
LINE
  5
215
330
1F
100
AcDbEntity
  8
基準ﾚｲﾔｸﾞﾙｰﾌﾟ_01
  6
極太
 62
     3
370
    35
100
AcDbLine
 10
92.50000000000007
 20
186.5
 30
0.0
 11
92.50000000000007
 21
191.3
 31
0.0
  0
LINE
  5
216
330
1F
100
AcDbEntity
  8
基準ﾚｲﾔｸﾞﾙｰﾌﾟ_01
  6
極太
 62
     3
370
    35
100
AcDbLine
 10
92.70000000000007
 20
191.5
 30
0.0
 11
92.50000000000007
 21
191.3
 31
0.0
  0
LINE
  5
217
330
1F
100
AcDbEntity
  8
基準ﾚｲﾔｸﾞﾙｰﾌﾟ_01
  6
極太
 62
     3
370
    35
100
AcDbLine
 10
117.5
 20
186.5
 30
0.0
 11
117.5
 21
191.3
 31
0.0
  0
LINE
  5
218
330
1F
100
AcDbEntity
  8
基準ﾚｲﾔｸﾞﾙｰﾌﾟ_01
  6
極太
 62
     3
370
    35
100
AcDbLine
 10
117.3
 20
191.5
 30
0.0
 11
117.5
 21
191.3
 31
0.0
  0
LINE
  5
219
330
1F
100
AcDbEntity
  8
基準ﾚｲﾔｸﾞﾙｰﾌﾟ_01
  6
極太
 62
     3
370
    35
100
AcDbLine
 10
117.3
 20
191.5
 30
0.0
 11
92.70000000000007
 21
191.5
 31
0.0
  0
LINE
  5
21A
330
1F
100
AcDbEntity
  8
基準ﾚｲﾔｸﾞﾙｰﾌﾟ_01
  6
極太
 62
     3
370
    35
100
AcDbLine
 10
92.50000000000007
 20
191.3
 30
0.0
 11
117.5
 21
191.3
 31
0.0
  0
ENDSEC
  0
SECTION
  2
OBJECTS
  0
DICTIONARY
  5
C
330
0
100
AcDbDictionary
281
     1
  3
ACAD_GROUP
350
D
  3
ACAD_LAYOUT
350
1A
  3
ACAD_MATERIAL
350
3B
  3
ACAD_MLEADERSTYLE
350
21D
  3
ACAD_MLINESTYLE
350
17
  3
ACAD_PLOTSETTINGS
350
19
  3
ACAD_PLOTSTYLENAME
350
E
  3
ACAD_VISUALSTYLE
350
2A
  3
AcDbVariableDictionary
350
21B
  0
DICTIONARY
  5
D
102
{ACAD_REACTORS
330
C
102
}
330
C
100
AcDbDictionary
281
     1
  0
DICTIONARY
  5
1A
102
{ACAD_REACTORS
330
C
102
}
330
C
100
AcDbDictionary
281
     1
  3
Layout1
350
1E
  3
Layout2
350
26
  3
Model
350
22
  0
DICTIONARY
  5
3B
102
{ACAD_REACTORS
330
C
102
}
330
C
100
AcDbDictionary
281
     1
  3
ByBlock
350
3D
  3
ByLayer
350
3C
  3
Global
350
3E
  0
DICTIONARY
  5
21D
102
{ACAD_REACTORS
330
C
102
}
330
C
100
AcDbDictionary
281
     1
  0
DICTIONARY
  5
17
102
{ACAD_REACTORS
330
C
102
}
330
C
100
AcDbDictionary
281
     1
  3
Standard
350
18
  0
DICTIONARY
  5
19
102
{ACAD_REACTORS
330
C
102
}
330
C
100
AcDbDictionary
281
     1
  0
ACDBDICTIONARYWDFLT
  5
E
102
{ACAD_REACTORS
330
C
102
}
330
C
100
AcDbDictionary
281
     1
  3
Normal
350
F
100
AcDbDictionaryWithDefault
340
F
  0
DICTIONARY
  5
2A
102
{ACAD_REACTORS
330
C
102
}
330
C
100
AcDbDictionary
281
     1
  3
2dWireframe
350
2F
  3
3D Hidden
350
31
  3
3dWireframe
350
30
  3
Basic
350
32
  3
Brighten
350
36
  3
ColorChange
350
3A
  3
Conceptual
350
34
  3
Dim
350
35
  3
Facepattern
350
39
  3
Flat
350
2B
  3
FlatWithEdges
350
2C
  3
Gouraud
350
2D
  3
GouraudWithEdges
350
2E
  3
Linepattern
350
38
  3
Realistic
350
33
  3
Thicken
350
37
  0
DICTIONARY
  5
21B
102
{ACAD_REACTORS
330
C
102
}
330
C
100
AcDbDictionary
281
     1
  3
DIMASSOC
350
220
  3
HIDETEXT
350
221
  3
PSOLHEIGHT
350
21F
  3
PSOLWIDTH
350
21E
  0
LAYOUT
  5
1E
102
{ACAD_REACTORS
330
1A
102
}
330
1A
100
AcDbPlotSettings
  1

  2
none_device
  4

  6

 40
0.0
 41
0.0
 42
0.0
 43
0.0
 44
0.0
 45
0.0
 46
0.0
 47
0.0
 48
0.0
 49
0.0
140
0.0
141
0.0
142
1.0
143
1.0
 70
   688
 72
     0
 73
     0
 74
     5
  7

 75
    16
147
1.0
148
0.0
149
0.0
100
AcDbLayout
  1
Layout1
 70
     1
 71
     1
 10
0.0
 20
0.0
 11
420.0
 21
297.0
 12
0.0
 22
0.0
 32
0.0
 14
1.000000000000000E+20
 24
1.000000000000000E+20
 34
1.000000000000000E+20
 15
-1.000000000000000E+20
 25
-1.000000000000000E+20
 35
-1.000000000000000E+20
146
0.0
 13
0.0
 23
0.0
 33
0.0
 16
1.0
 26
0.0
 36
0.0
 17
0.0
 27
1.0
 37
0.0
 76
     0
330
1B
  0
LAYOUT
  5
26
102
{ACAD_REACTORS
330
1A
102
}
330
1A
100
AcDbPlotSettings
  1

  2
none_device
  4

  6

 40
0.0
 41
0.0
 42
0.0
 43
0.0
 44
0.0
 45
0.0
 46
0.0
 47
0.0
 48
0.0
 49
0.0
140
0.0
141
0.0
142
1.0
143
1.0
 70
   688
 72
     0
 73
     0
 74
     5
  7

 75
    16
147
1.0
148
0.0
149
0.0
100
AcDbLayout
  1
Layout2
 70
     1
 71
     2
 10
0.0
 20
0.0
 11
0.0
 21
0.0
 12
0.0
 22
0.0
 32
0.0
 14
0.0
 24
0.0
 34
0.0
 15
0.0
 25
0.0
 35
0.0
146
0.0
 13
0.0
 23
0.0
 33
0.0
 16
1.0
 26
0.0
 36
0.0
 17
0.0
 27
1.0
 37
0.0
 76
     0
330
23
  0
LAYOUT
  5
22
102
{ACAD_REACTORS
330
1A
102
}
330
1A
100
AcDbPlotSettings
  1

  2
none_device
  4

  6

 40
0.0
 41
0.0
 42
0.0
 43
0.0
 44
0.0
 45
0.0
 46
0.0
 47
0.0
 48
0.0
 49
0.0
140
0.0
141
0.0
142
1.0
143
1.0
 70
  1712
 72
     0
 73
     0
 74
     0
  7

 75
     0
147
1.0
148
0.0
149
0.0
100
AcDbLayout
  1
Model
 70
     1
 71
     0
 10
0.0
 20
0.0
 11
210.0
 21
297.0
 12
0.0
 22
0.0
 32
0.0
 14
0.0
 24
0.0
 34
0.0
 15
210.0
 25
297.0
 35
0.0
146
0.0
 13
0.0
 23
0.0
 33
0.0
 16
1.0
 26
0.0
 36
0.0
 17
0.0
 27
1.0
 37
0.0
 76
     0
330
1F
331
29
  0
MATERIAL
  5
3D
102
{ACAD_REACTORS
330
3B
102
}
102
{ACAD_XDICTIONARY
360
244
102
}
330
3B
100
AcDbMaterial
  1
ByBlock
  0
MATERIAL
  5
3C
102
{ACAD_REACTORS
330
3B
102
}
102
{ACAD_XDICTIONARY
360
242
102
}
330
3B
100
AcDbMaterial
  1
ByLayer
  0
MATERIAL
  5
3E
102
{ACAD_REACTORS
330
3B
102
}
102
{ACAD_XDICTIONARY
360
246
102
}
330
3B
100
AcDbMaterial
  1
Global
  0
MLINESTYLE
  5
18
102
{ACAD_REACTORS
330
17
102
}
330
17
100
AcDbMlineStyle
  2
Standard
 70
     0
  3

 62
   256
 51
90.0
 52
90.0
 71
     2
 49
0.5
 62
   256
  6
BYLAYER
 49
-0.5
 62
   256
  6
BYLAYER
  0
ACDBPLACEHOLDER
  5
F
102
{ACAD_REACTORS
330
E
102
}
330
E
  0
VISUALSTYLE
  5
2F
102
{ACAD_REACTORS
330
2A
102
}
102
{ACAD_XDICTIONARY
360
22A
102
}
330
2A
100
AcDbVisualStyle
  2
2dWireframe
 70
     4
 71
     0
 72
     2
 73
     0
 90
        0
 40
-0.6
 41
-30.0
 62
     5
 63
     7
 74
     1
 91
        4
 64
     7
 65
   257
 75
     1
175
     1
 42
1.0
 92
        0
 66
   257
 43
1.0
 76
     1
 77
     6
 78
     2
 67
     7
 79
     5
170
     0
171
     0
290
     0
174
     0
 93
        1
 44
0.0
173
     0
291
     0
 45
0.0
1001
ACAD
1000
AcDbSavedByObjectVersion
1070
     0
  0
VISUALSTYLE
  5
31
102
{ACAD_REACTORS
330
2A
102
}
102
{ACAD_XDICTIONARY
360
22E
102
}
330
2A
100
AcDbVisualStyle
  2
3D Hidden
 70
     6
 71
     1
 72
     2
 73
     2
 90
        0
 40
-0.6
 41
-30.0
 62
     5
 63
     7
 74
     2
 91
        2
 64
     7
 65
   257
 75
     2
175
     1
 42
40.0
 92
        0
 66
   257
 43
1.0
 76
     1
 77
     6
 78
     2
 67
     7
 79
     3
170
     0
171
     0
290
     0
174
     0
 93
        1
 44
0.0
173
     0
291
     0
 45
0.0
1001
ACAD
1000
AcDbSavedByObjectVersion
1070
     0
  0
VISUALSTYLE
  5
30
102
{ACAD_REACTORS
330
2A
102
}
102
{ACAD_XDICTIONARY
360
22C
102
}
330
2A
100
AcDbVisualStyle
  2
3dWireframe
 70
     5
 71
     0
 72
     2
 73
     0
 90
        0
 40
-0.6
 41
-30.0
 62
     5
 63
     7
 74
     1
 91
        4
 64
     7
 65
   257
 75
     1
175
     1
 42
1.0
 92
        0
 66
   257
 43
1.0
 76
     1
 77
     6
 78
     2
 67
     7
 79
     5
170
     0
171
     0
290
     0
174
     0
 93
        1
 44
0.0
173
     0
291
     0
 45
0.0
1001
ACAD
1000
AcDbSavedByObjectVersion
1070
     0
  0
VISUALSTYLE
  5
32
102
{ACAD_REACTORS
330
2A
102
}
102
{ACAD_XDICTIONARY
360
230
102
}
330
2A
100
AcDbVisualStyle
  2
Basic
 70
     7
 71
     1
 72
     0
 73
     1
 90
        0
 40
-0.6
 41
-30.0
 62
     5
 63
     7
 74
     0
 91
        4
 64
     7
 65
   257
 75
     1
175
     1
 42
1.0
 92
        8
 66
     7
 43
1.0
 76
     1
 77
     6
 78
     2
 67
     7
 79
     5
170
     0
171
     0
290
     0
174
     0
 93
        1
 44
0.0
173
     0
291
     1
 45
0.0
1001
ACAD
1000
AcDbSavedByObjectVersion
1070
     0
  0
VISUALSTYLE
  5
36
102
{ACAD_REACTORS
330
2A
102
}
102
{ACAD_XDICTIONARY
360
238
102
}
330
2A
100
AcDbVisualStyle
  2
Brighten
 70
    12
 71
     2
 72
     2
 73
     0
 90
        0
 40
-0.6
 41
-30.0
 62
     5
 63
     7
 74
     1
 91
        4
 64
     7
 65
   257
 75
     1
175
     1
 42
1.0
 92
        8
 66
     7
 43
1.0
 76
     1
 77
     6
 78
     2
 67
     7
 79
     5
170
     0
171
     0
290
     0
174
     0
 93
        1
 44
50.0
173
     0
291
     1
 45
0.0
1001
ACAD
1000
AcDbSavedByObjectVersion
1070
     0
  0
VISUALSTYLE
  5
3A
102
{ACAD_REACTORS
330
2A
102
}
102
{ACAD_XDICTIONARY
360
240
102
}
330
2A
100
AcDbVisualStyle
  2
ColorChange
 70
    16
 71
     2
 72
     2
 73
     3
 90
        0
 40
-0.6
 41
-30.0
 62
     5
 63
     8
 74
     1
 91
        4
 64
     7
 65
   257
 75
     1
175
     1
 42
1.0
 92
        8
 66
     8
 43
1.0
 76
     1
 77
     6
 78
     2
 67
     7
 79
     5
170
     0
171
     0
290
     0
174
     0
 93
        1
 44
0.0
173
     0
291
     1
 45
0.0
1001
ACAD
1000
AcDbSavedByObjectVersion
1070
     0
  0
VISUALSTYLE
  5
34
102
{ACAD_REACTORS
330
2A
102
}
102
{ACAD_XDICTIONARY
360
234
102
}
330
2A
100
AcDbVisualStyle
  2
Conceptual
 70
     9
 71
     3
 72
     2
 73
     0
 90
        0
 40
-0.6
 41
-30.0
 62
     5
 63
     7
 74
     2
 91
        2
 64
     7
 65
   257
 75
     1
175
     1
 42
40.0
 92
        8
 66
     7
 43
1.0
 76
     1
 77
     6
 78
     2
 67
     7
 79
     3
170
     0
171
     0
290
     0
174
     0
 93
        1
 44
0.0
173
     0
291
     0
 45
0.0
1001
ACAD
1000
AcDbSavedByObjectVersion
1070
     0
  0
VISUALSTYLE
  5
35
102
{ACAD_REACTORS
330
2A
102
}
102
{ACAD_XDICTIONARY
360
236
102
}
330
2A
100
AcDbVisualStyle
  2
Dim
 70
    11
 71
     2
 72
     2
 73
     0
 90
        0
 40
-0.6
 41
-30.0
 62
     5
 63
     7
 74
     1
 91
        4
 64
     7
 65
   257
 75
     1
175
     1
 42
1.0
 92
        8
 66
     7
 43
1.0
 76
     1
 77
     6
 78
     2
 67
     7
 79
     5
170
     0
171
     0
290
     0
174
     0
 93
        1
 44
-50.0
173
     0
291
     1
 45
0.0
1001
ACAD
1000
AcDbSavedByObjectVersion
1070
     0
  0
VISUALSTYLE
  5
39
102
{ACAD_REACTORS
330
2A
102
}
102
{ACAD_XDICTIONARY
360
23E
102
}
330
2A
100
AcDbVisualStyle
  2
Facepattern
 70
    15
 71
     2
 72
     2
 73
     0
 90
        0
 40
-0.6
 41
-30.0
 62
     5
 63
     7
 74
     1
 91
        4
 64
     7
 65
   257
 75
     1
175
     1
 42
1.0
 92
        8
 66
     7
 43
1.0
 76
     1
 77
     6
 78
     2
 67
     7
 79
     5
170
     0
171
     0
290
     0
174
     0
 93
        1
 44
0.0
173
     0
291
     1
 45
0.0
1001
ACAD
1000
AcDbSavedByObjectVersion
1070
     0
  0
VISUALSTYLE
  5
2B
102
{ACAD_REACTORS
330
2A
102
}
102
{ACAD_XDICTIONARY
360
222
102
}
330
2A
100
AcDbVisualStyle
  2
Flat
 70
     0
 71
     2
 72
     1
 73
     1
 90
        2
 40
-0.6
 41
30.0
 62
     5
 63
     7
 74
     0
 91
        4
 64
     7
 65
   257
 75
     1
175
     1
 42
1.0
 92
        8
 66
     7
 43
1.0
 76
     1
 77
     6
 78
     2
 67
     7
 79
     5
170
     0
171
     0
290
     0
174
     0
 93
       13
 44
0.0
173
     0
291
     1
 45
0.0
1001
ACAD
1000
AcDbSavedByObjectVersion
1070
     0
  0
VISUALSTYLE
  5
2C
102
{ACAD_REACTORS
330
2A
102
}
102
{ACAD_XDICTIONARY
360
224
102
}
330
2A
100
AcDbVisualStyle
  2
FlatWithEdges
 70
     1
 71
     2
 72
     1
 73
     1
 90
        2
 40
-0.6
 41
30.0
 62
     5
 63
     7
 74
     1
 91
        4
 64
     7
 65
   257
 75
     1
175
     1
 42
1.0
 92
        0
 66
   257
 43
1.0
 76
     1
 77
     6
 78
     2
 67
     7
 79
     5
170
     0
171
     0
290
     0
174
     0
 93
       13
 44
0.0
173
     0
291
     1
 45
0.0
1001
ACAD
1000
AcDbSavedByObjectVersion
1070
     0
  0
VISUALSTYLE
  5
2D
102
{ACAD_REACTORS
330
2A
102
}
102
{ACAD_XDICTIONARY
360
226
102
}
330
2A
100
AcDbVisualStyle
  2
Gouraud
 70
     2
 71
     2
 72
     2
 73
     1
 90
        2
 40
-0.6
 41
30.0
 62
     5
 63
     7
 74
     0
 91
        4
 64
     7
 65
   257
 75
     1
175
     1
 42
1.0
 92
        0
 66
     7
 43
1.0
 76
     1
 77
     6
 78
     2
 67
     7
 79
     5
170
     0
171
     0
290
     0
174
     0
 93
       13
 44
0.0
173
     0
291
     1
 45
0.0
1001
ACAD
1000
AcDbSavedByObjectVersion
1070
     0
  0
VISUALSTYLE
  5
2E
102
{ACAD_REACTORS
330
2A
102
}
102
{ACAD_XDICTIONARY
360
228
102
}
330
2A
100
AcDbVisualStyle
  2
GouraudWithEdges
 70
     3
 71
     2
 72
     2
 73
     1
 90
        2
 40
-0.6
 41
30.0
 62
     5
 63
     7
 74
     1
 91
        4
 64
     7
 65
   257
 75
     1
175
     1
 42
1.0
 92
        0
 66
   257
 43
1.0
 76
     1
 77
     6
 78
     2
 67
     7
 79
     5
170
     0
171
     0
290
     0
174
     0
 93
       13
 44
0.0
173
     0
291
     1
 45
0.0
1001
ACAD
1000
AcDbSavedByObjectVersion
1070
     0
  0
VISUALSTYLE
  5
38
102
{ACAD_REACTORS
330
2A
102
}
102
{ACAD_XDICTIONARY
360
23C
102
}
330
2A
100
AcDbVisualStyle
  2
Linepattern
 70
    14
 71
     2
 72
     2
 73
     0
 90
        0
 40
-0.6
 41
-30.0
 62
     5
 63
     7
 74
     1
 91
        4
 64
     7
 65
   257
 75
     7
175
     7
 42
1.0
 92
        8
 66
     7
 43
1.0
 76
     1
 77
     6
 78
     2
 67
     7
 79
     5
170
     0
171
     0
290
     0
174
     0
 93
        1
 44
0.0
173
     0
291
     1
 45
0.0
1001
ACAD
1000
AcDbSavedByObjectVersion
1070
     0
  0
VISUALSTYLE
  5
33
102
{ACAD_REACTORS
330
2A
102
}
102
{ACAD_XDICTIONARY
360
232
102
}
330
2A
100
AcDbVisualStyle
  2
Realistic
 70
     8
 71
     2
 72
     2
 73
     0
 90
        0
 40
-0.6
 41
-30.0
 62
     5
 63
     7
 74
     1
 91
        0
 64
     7
 65
   257
 75
     1
175
     1
 42
1.0
 92
        8
 66
     8
 43
1.0
 76
     1
 77
     6
 78
     2
 67
     7
 79
     5
170
     0
171
     0
290
     0
174
     0
 93
       13
 44
0.0
173
     0
291
     0
 45
0.0
1001
ACAD
1000
AcDbSavedByObjectVersion
1070
     0
  0
VISUALSTYLE
  5
37
102
{ACAD_REACTORS
330
2A
102
}
102
{ACAD_XDICTIONARY
360
23A
102
}
330
2A
100
AcDbVisualStyle
  2
Thicken
 70
    13
 71
     2
 72
     2
 73
     0
 90
        0
 40
-0.6
 41
-30.0
 62
     5
 63
     7
 74
     1
 91
        4
 64
     7
 65
   257
 75
     1
175
     1
 42
1.0
 92
       12
 66
     7
 43
1.0
 76
     1
 77
     6
 78
     2
 67
     7
 79
     5
170
     0
171
     0
290
     0
174
     0
 93
        1
 44
0.0
173
     0
291
     1
 45
0.0
1001
ACAD
1000
AcDbSavedByObjectVersion
1070
     0
  0
DICTIONARYVAR
  5
220
102
{ACAD_REACTORS
330
21B
102
}
330
21B
100
DictionaryVariables
280
     0
  1
2
  0
DICTIONARYVAR
  5
221
102
{ACAD_REACTORS
330
21B
102
}
330
21B
100
DictionaryVariables
280
     0
  1
1
  0
DICTIONARYVAR
  5
21F
102
{ACAD_REACTORS
330
21B
102
}
330
21B
100
DictionaryVariables
280
     0
  1
80.000000
  0
DICTIONARYVAR
  5
21E
102
{ACAD_REACTORS
330
21B
102
}
330
21B
100
DictionaryVariables
280
     0
  1
5.000000
  0
DICTIONARY
  5
244
330
3D
100
AcDbDictionary
280
     1
281
     1
  3
ACAD_XREC_ROUNDTRIP
360
245
  0
DICTIONARY
  5
242
330
3C
100
AcDbDictionary
280
     1
281
     1
  3
ACAD_XREC_ROUNDTRIP
360
243
  0
DICTIONARY
  5
246
330
3E
100
AcDbDictionary
280
     1
281
     1
  3
ACAD_XREC_ROUNDTRIP
360
247
  0
DICTIONARY
  5
22A
330
2F
100
AcDbDictionary
280
     1
281
     1
  3
ACAD_XREC_ROUNDTRIP
360
22B
  0
DICTIONARY
  5
22E
330
31
100
AcDbDictionary
280
     1
281
     1
  3
ACAD_XREC_ROUNDTRIP
360
22F
  0
DICTIONARY
  5
22C
330
30
100
AcDbDictionary
280
     1
281
     1
  3
ACAD_XREC_ROUNDTRIP
360
22D
  0
DICTIONARY
  5
230
330
32
100
AcDbDictionary
280
     1
281
     1
  3
ACAD_XREC_ROUNDTRIP
360
231
  0
DICTIONARY
  5
238
330
36
100
AcDbDictionary
280
     1
281
     1
  3
ACAD_XREC_ROUNDTRIP
360
239
  0
DICTIONARY
  5
240
330
3A
100
AcDbDictionary
280
     1
281
     1
  3
ACAD_XREC_ROUNDTRIP
360
241
  0
DICTIONARY
  5
234
330
34
100
AcDbDictionary
280
     1
281
     1
  3
ACAD_XREC_ROUNDTRIP
360
235
  0
DICTIONARY
  5
236
330
35
100
AcDbDictionary
280
     1
281
     1
  3
ACAD_XREC_ROUNDTRIP
360
237
  0
DICTIONARY
  5
23E
330
39
100
AcDbDictionary
280
     1
281
     1
  3
ACAD_XREC_ROUNDTRIP
360
23F
  0
DICTIONARY
  5
222
330
2B
100
AcDbDictionary
280
     1
281
     1
  3
ACAD_XREC_ROUNDTRIP
360
223
  0
DICTIONARY
  5
224
330
2C
100
AcDbDictionary
280
     1
281
     1
  3
ACAD_XREC_ROUNDTRIP
360
225
  0
DICTIONARY
  5
226
330
2D
100
AcDbDictionary
280
     1
281
     1
  3
ACAD_XREC_ROUNDTRIP
360
227
  0
DICTIONARY
  5
228
330
2E
100
AcDbDictionary
280
     1
281
     1
  3
ACAD_XREC_ROUNDTRIP
360
229
  0
DICTIONARY
  5
23C
330
38
100
AcDbDictionary
280
     1
281
     1
  3
ACAD_XREC_ROUNDTRIP
360
23D
  0
DICTIONARY
  5
232
330
33
100
AcDbDictionary
280
     1
281
     1
  3
ACAD_XREC_ROUNDTRIP
360
233
  0
DICTIONARY
  5
23A
330
37
100
AcDbDictionary
280
     1
281
     1
  3
ACAD_XREC_ROUNDTRIP
360
23B
  0
XRECORD
  5
245
102
{ACAD_REACTORS
330
244
102
}
330
244
100
AcDbXrecord
280
     1
102
MATERIAL
148
0.0
149
0.0
149
0.0
 93
        0
 94
      127
282
     0
 72
     1
 77
     1
171
     1
175
     1
179
     1
273
     0
  0
XRECORD
  5
243
102
{ACAD_REACTORS
330
242
102
}
330
242
100
AcDbXrecord
280
     1
102
MATERIAL
148
0.0
149
0.0
149
0.0
 93
        0
 94
      127
282
     0
 72
     1
 77
     1
171
     1
175
     1
179
     1
273
     0
  0
XRECORD
  5
247
102
{ACAD_REACTORS
330
246
102
}
330
246
100
AcDbXrecord
280
     1
102
MATERIAL
148
0.0
149
0.0
149
0.0
 93
        0
 94
      127
282
     0
 72
     1
 77
     1
171
     1
175
     1
179
     1
273
     0
  0
XRECORD
  5
22B
102
{ACAD_REACTORS
330
22A
102
}
330
22A
100
AcDbXrecord
280
     1
102
RTVSPropertyOp0
 70
     1
102
RTVSPropertyOp1
 70
     1
102
RTVSPropertyOp2
 70
     1
102
RTVSPropertyOp3
 70
     1
102
RTVSPropertyOp4
 70
     1
102
RTVSPropertyOp5
 70
     1
102
RTVSPropertyOp6
 70
     1
102
RTVSPropertyOp7
 70
     1
102
RTVSPropertyOp8
 70
     1
102
RTVSPropertyOp9
 70
     1
102
RTVSPropertyOp10
 70
     1
102
RTVSPropertyOp11
 70
     1
102
RTVSPropertyOp12
 70
     1
102
RTVSPropertyOp13
 70
     1
102
RTVSPropertyOp14
 70
     1
102
RTVSPropertyOp15
 70
     1
102
RTVSPropertyOp16
 70
     1
102
RTVSPropertyOp17
 70
     1
102
RTVSPropertyOp18
 70
     1
102
RTVSPropertyOp19
 70
     1
102
RTVSPropertyOp20
 70
     1
102
RTVSPropertyOp21
 70
     1
102
RTVSPropertyOp22
 70
     1
102
RTVSPropertyOp23
 70
     1
102
RTVSPropertyOp24
 70
     1
102
RTVSPropertyOp25
 70
     1
102
RTVSPropertyOp26
 70
     1
102
RTVSPropertyOp27
 70
     1
102
RTVSPropertyOp28
 70
     1
102
RTVSPropertyOp29
 70
     1
102
RTVSPropertyOp30
 70
     1
102
RTVSPropertyOp31
 70
     1
102
RTVSPropertyOp32
 70
     1
  0
XRECORD
  5
22F
102
{ACAD_REACTORS
330
22E
102
}
330
22E
100
AcDbXrecord
280
     1
102
RTVSPropertyOp0
 70
     1
102
RTVSPropertyOp1
 70
     1
102
RTVSPropertyOp2
 70
     1
102
RTVSPropertyOp3
 70
     1
102
RTVSPropertyOp4
 70
     1
102
RTVSPropertyOp5
 70
     1
102
RTVSPropertyOp6
 70
     1
102
RTVSPropertyOp7
 70
     1
102
RTVSPropertyOp8
 70
     1
102
RTVSPropertyOp9
 70
     1
102
RTVSPropertyOp10
 70
     1
102
RTVSPropertyOp11
 70
     1
102
RTVSPropertyOp12
 70
     1
102
RTVSPropertyOp13
 70
     1
102
RTVSPropertyOp14
 70
     1
102
RTVSPropertyOp15
 70
     1
102
RTVSPropertyOp16
 70
     1
102
RTVSPropertyOp17
 70
     1
102
RTVSPropertyOp18
 70
     1
102
RTVSPropertyOp19
 70
     1
102
RTVSPropertyOp20
 70
     1
102
RTVSPropertyOp21
 70
     1
102
RTVSPropertyOp22
 70
     1
102
RTVSPropertyOp23
 70
     1
102
RTVSPropertyOp24
 70
     1
102
RTVSPropertyOp25
 70
     1
102
RTVSPropertyOp26
 70
     1
102
RTVSPropertyOp27
 70
     1
102
RTVSPropertyOp28
 70
     1
102
RTVSPropertyOp29
 70
     1
102
RTVSPropertyOp30
 70
     1
102
RTVSPropertyOp31
 70
     1
102
RTVSPropertyOp32
 70
     1
  0
XRECORD
  5
22D
102
{ACAD_REACTORS
330
22C
102
}
330
22C
100
AcDbXrecord
280
     1
102
RTVSPropertyOp0
 70
     1
102
RTVSPropertyOp1
 70
     1
102
RTVSPropertyOp2
 70
     1
102
RTVSPropertyOp3
 70
     1
102
RTVSPropertyOp4
 70
     1
102
RTVSPropertyOp5
 70
     1
102
RTVSPropertyOp6
 70
     1
102
RTVSPropertyOp7
 70
     1
102
RTVSPropertyOp8
 70
     1
102
RTVSPropertyOp9
 70
     1
102
RTVSPropertyOp10
 70
     1
102
RTVSPropertyOp11
 70
     1
102
RTVSPropertyOp12
 70
     1
102
RTVSPropertyOp13
 70
     1
102
RTVSPropertyOp14
 70
     1
102
RTVSPropertyOp15
 70
     1
102
RTVSPropertyOp16
 70
     1
102
RTVSPropertyOp17
 70
     1
102
RTVSPropertyOp18
 70
     1
102
RTVSPropertyOp19
 70
     1
102
RTVSPropertyOp20
 70
     1
102
RTVSPropertyOp21
 70
     1
102
RTVSPropertyOp22
 70
     1
102
RTVSPropertyOp23
 70
     1
102
RTVSPropertyOp24
 70
     1
102
RTVSPropertyOp25
 70
     1
102
RTVSPropertyOp26
 70
     1
102
RTVSPropertyOp27
 70
     1
102
RTVSPropertyOp28
 70
     1
102
RTVSPropertyOp29
 70
     1
102
RTVSPropertyOp30
 70
     1
102
RTVSPropertyOp31
 70
     1
102
RTVSPropertyOp32
 70
     1
  0
XRECORD
  5
231
102
{ACAD_REACTORS
330
230
102
}
330
230
100
AcDbXrecord
280
     1
102
RTVSPropertyOp0
 70
     1
102
RTVSPropertyOp1
 70
     1
102
RTVSPropertyOp2
 70
     1
102
RTVSPropertyOp3
 70
     1
102
RTVSPropertyOp4
 70
     1
102
RTVSPropertyOp5
 70
     1
102
RTVSPropertyOp6
 70
     1
102
RTVSPropertyOp7
 70
     1
102
RTVSPropertyOp8
 70
     1
102
RTVSPropertyOp9
 70
     1
102
RTVSPropertyOp10
 70
     1
102
RTVSPropertyOp11
 70
     1
102
RTVSPropertyOp12
 70
     1
102
RTVSPropertyOp13
 70
     1
102
RTVSPropertyOp14
 70
     1
102
RTVSPropertyOp15
 70
     1
102
RTVSPropertyOp16
 70
     1
102
RTVSPropertyOp17
 70
     1
102
RTVSPropertyOp18
 70
     1
102
RTVSPropertyOp19
 70
     1
102
RTVSPropertyOp20
 70
     1
102
RTVSPropertyOp21
 70
     1
102
RTVSPropertyOp22
 70
     1
102
RTVSPropertyOp23
 70
     1
102
RTVSPropertyOp24
 70
     1
102
RTVSPropertyOp25
 70
     1
102
RTVSPropertyOp26
 70
     1
102
RTVSPropertyOp27
 70
     1
102
RTVSPropertyOp28
 70
     1
102
RTVSPropertyOp29
 70
     1
102
RTVSPropertyOp30
 70
     1
102
RTVSPropertyOp31
 70
     1
102
RTVSPropertyOp32
 70
     1
  0
XRECORD
  5
239
102
{ACAD_REACTORS
330
238
102
}
330
238
100
AcDbXrecord
280
     1
102
RTVSPropertyOp0
 70
     1
102
RTVSPropertyOp1
 70
     1
102
RTVSPropertyOp2
 70
     1
102
RTVSPropertyOp3
 70
     1
102
RTVSPropertyOp4
 70
     1
102
RTVSPropertyOp5
 70
     1
102
RTVSPropertyOp6
 70
     1
102
RTVSPropertyOp7
 70
     1
102
RTVSPropertyOp8
 70
     1
102
RTVSPropertyOp9
 70
     1
102
RTVSPropertyOp10
 70
     1
102
RTVSPropertyOp11
 70
     1
102
RTVSPropertyOp12
 70
     1
102
RTVSPropertyOp13
 70
     1
102
RTVSPropertyOp14
 70
     1
102
RTVSPropertyOp15
 70
     1
102
RTVSPropertyOp16
 70
     1
102
RTVSPropertyOp17
 70
     1
102
RTVSPropertyOp18
 70
     1
102
RTVSPropertyOp19
 70
     1
102
RTVSPropertyOp20
 70
     1
102
RTVSPropertyOp21
 70
     1
102
RTVSPropertyOp22
 70
     1
102
RTVSPropertyOp23
 70
     1
102
RTVSPropertyOp24
 70
     1
102
RTVSPropertyOp25
 70
     1
102
RTVSPropertyOp26
 70
     1
102
RTVSPropertyOp27
 70
     1
102
RTVSPropertyOp28
 70
     1
102
RTVSPropertyOp29
 70
     1
102
RTVSPropertyOp30
 70
     1
102
RTVSPropertyOp31
 70
     1
102
RTVSPropertyOp32
 70
     1
  0
XRECORD
  5
241
102
{ACAD_REACTORS
330
240
102
}
330
240
100
AcDbXrecord
280
     1
102
RTVSPropertyOp0
 70
     1
102
RTVSPropertyOp1
 70
     1
102
RTVSPropertyOp2
 70
     1
102
RTVSPropertyOp3
 70
     1
102
RTVSPropertyOp4
 70
     1
102
RTVSPropertyOp5
 70
     1
102
RTVSPropertyOp6
 70
     1
102
RTVSPropertyOp7
 70
     1
102
RTVSPropertyOp8
 70
     1
102
RTVSPropertyOp9
 70
     1
102
RTVSPropertyOp10
 70
     1
102
RTVSPropertyOp11
 70
     1
102
RTVSPropertyOp12
 70
     1
102
RTVSPropertyOp13
 70
     1
102
RTVSPropertyOp14
 70
     1
102
RTVSPropertyOp15
 70
     1
102
RTVSPropertyOp16
 70
     1
102
RTVSPropertyOp17
 70
     1
102
RTVSPropertyOp18
 70
     1
102
RTVSPropertyOp19
 70
     1
102
RTVSPropertyOp20
 70
     1
102
RTVSPropertyOp21
 70
     1
102
RTVSPropertyOp22
 70
     1
102
RTVSPropertyOp23
 70
     1
102
RTVSPropertyOp24
 70
     1
102
RTVSPropertyOp25
 70
     1
102
RTVSPropertyOp26
 70
     1
102
RTVSPropertyOp27
 70
     1
102
RTVSPropertyOp28
 70
     1
102
RTVSPropertyOp29
 70
     1
102
RTVSPropertyOp30
 70
     1
102
RTVSPropertyOp31
 70
     1
102
RTVSPropertyOp32
 70
     1
  0
XRECORD
  5
235
102
{ACAD_REACTORS
330
234
102
}
330
234
100
AcDbXrecord
280
     1
102
RTVSPropertyOp0
 70
     1
102
RTVSPropertyOp1
 70
     1
102
RTVSPropertyOp2
 70
     1
102
RTVSPropertyOp3
 70
     1
102
RTVSPropertyOp4
 70
     1
102
RTVSPropertyOp5
 70
     1
102
RTVSPropertyOp6
 70
     1
102
RTVSPropertyOp7
 70
     1
102
RTVSPropertyOp8
 70
     1
102
RTVSPropertyOp9
 70
     1
102
RTVSPropertyOp10
 70
     1
102
RTVSPropertyOp11
 70
     1
102
RTVSPropertyOp12
 70
     1
102
RTVSPropertyOp13
 70
     1
102
RTVSPropertyOp14
 70
     1
102
RTVSPropertyOp15
 70
     1
102
RTVSPropertyOp16
 70
     1
102
RTVSPropertyOp17
 70
     1
102
RTVSPropertyOp18
 70
     1
102
RTVSPropertyOp19
 70
     1
102
RTVSPropertyOp20
 70
     1
102
RTVSPropertyOp21
 70
     1
102
RTVSPropertyOp22
 70
     1
102
RTVSPropertyOp23
 70
     1
102
RTVSPropertyOp24
 70
     1
102
RTVSPropertyOp25
 70
     1
102
RTVSPropertyOp26
 70
     1
102
RTVSPropertyOp27
 70
     1
102
RTVSPropertyOp28
 70
     1
102
RTVSPropertyOp29
 70
     1
102
RTVSPropertyOp30
 70
     1
102
RTVSPropertyOp31
 70
     1
102
RTVSPropertyOp32
 70
     1
  0
XRECORD
  5
237
102
{ACAD_REACTORS
330
236
102
}
330
236
100
AcDbXrecord
280
     1
102
RTVSPropertyOp0
 70
     1
102
RTVSPropertyOp1
 70
     1
102
RTVSPropertyOp2
 70
     1
102
RTVSPropertyOp3
 70
     1
102
RTVSPropertyOp4
 70
     1
102
RTVSPropertyOp5
 70
     1
102
RTVSPropertyOp6
 70
     1
102
RTVSPropertyOp7
 70
     1
102
RTVSPropertyOp8
 70
     1
102
RTVSPropertyOp9
 70
     1
102
RTVSPropertyOp10
 70
     1
102
RTVSPropertyOp11
 70
     1
102
RTVSPropertyOp12
 70
     1
102
RTVSPropertyOp13
 70
     1
102
RTVSPropertyOp14
 70
     1
102
RTVSPropertyOp15
 70
     1
102
RTVSPropertyOp16
 70
     1
102
RTVSPropertyOp17
 70
     1
102
RTVSPropertyOp18
 70
     1
102
RTVSPropertyOp19
 70
     1
102
RTVSPropertyOp20
 70
     1
102
RTVSPropertyOp21
 70
     1
102
RTVSPropertyOp22
 70
     1
102
RTVSPropertyOp23
 70
     1
102
RTVSPropertyOp24
 70
     1
102
RTVSPropertyOp25
 70
     1
102
RTVSPropertyOp26
 70
     1
102
RTVSPropertyOp27
 70
     1
102
RTVSPropertyOp28
 70
     1
102
RTVSPropertyOp29
 70
     1
102
RTVSPropertyOp30
 70
     1
102
RTVSPropertyOp31
 70
     1
102
RTVSPropertyOp32
 70
     1
  0
XRECORD
  5
23F
102
{ACAD_REACTORS
330
23E
102
}
330
23E
100
AcDbXrecord
280
     1
102
RTVSPropertyOp0
 70
     1
102
RTVSPropertyOp1
 70
     1
102
RTVSPropertyOp2
 70
     1
102
RTVSPropertyOp3
 70
     1
102
RTVSPropertyOp4
 70
     1
102
RTVSPropertyOp5
 70
     1
102
RTVSPropertyOp6
 70
     1
102
RTVSPropertyOp7
 70
     1
102
RTVSPropertyOp8
 70
     1
102
RTVSPropertyOp9
 70
     1
102
RTVSPropertyOp10
 70
     1
102
RTVSPropertyOp11
 70
     1
102
RTVSPropertyOp12
 70
     1
102
RTVSPropertyOp13
 70
     1
102
RTVSPropertyOp14
 70
     1
102
RTVSPropertyOp15
 70
     1
102
RTVSPropertyOp16
 70
     1
102
RTVSPropertyOp17
 70
     1
102
RTVSPropertyOp18
 70
     1
102
RTVSPropertyOp19
 70
     1
102
RTVSPropertyOp20
 70
     1
102
RTVSPropertyOp21
 70
     1
102
RTVSPropertyOp22
 70
     1
102
RTVSPropertyOp23
 70
     1
102
RTVSPropertyOp24
 70
     1
102
RTVSPropertyOp25
 70
     1
102
RTVSPropertyOp26
 70
     1
102
RTVSPropertyOp27
 70
     1
102
RTVSPropertyOp28
 70
     1
102
RTVSPropertyOp29
 70
     1
102
RTVSPropertyOp30
 70
     1
102
RTVSPropertyOp31
 70
     1
102
RTVSPropertyOp32
 70
     1
  0
XRECORD
  5
223
102
{ACAD_REACTORS
330
222
102
}
330
222
100
AcDbXrecord
280
     1
102
RTVSPropertyOp0
 70
     1
102
RTVSPropertyOp1
 70
     1
102
RTVSPropertyOp2
 70
     1
102
RTVSPropertyOp3
 70
     1
102
RTVSPropertyOp4
 70
     1
102
RTVSPropertyOp5
 70
     1
102
RTVSPropertyOp6
 70
     1
102
RTVSPropertyOp7
 70
     1
102
RTVSPropertyOp8
 70
     1
102
RTVSPropertyOp9
 70
     1
102
RTVSPropertyOp10
 70
     1
102
RTVSPropertyOp11
 70
     1
102
RTVSPropertyOp12
 70
     1
102
RTVSPropertyOp13
 70
     1
102
RTVSPropertyOp14
 70
     1
102
RTVSPropertyOp15
 70
     1
102
RTVSPropertyOp16
 70
     1
102
RTVSPropertyOp17
 70
     1
102
RTVSPropertyOp18
 70
     1
102
RTVSPropertyOp19
 70
     1
102
RTVSPropertyOp20
 70
     1
102
RTVSPropertyOp21
 70
     1
102
RTVSPropertyOp22
 70
     1
102
RTVSPropertyOp23
 70
     1
102
RTVSPropertyOp24
 70
     1
102
RTVSPropertyOp25
 70
     1
102
RTVSPropertyOp26
 70
     1
102
RTVSPropertyOp27
 70
     1
102
RTVSPropertyOp28
 70
     1
102
RTVSPropertyOp29
 70
     1
102
RTVSPropertyOp30
 70
     1
102
RTVSPropertyOp31
 70
     1
102
RTVSPropertyOp32
 70
     1
  0
XRECORD
  5
225
102
{ACAD_REACTORS
330
224
102
}
330
224
100
AcDbXrecord
280
     1
102
RTVSPropertyOp0
 70
     1
102
RTVSPropertyOp1
 70
     1
102
RTVSPropertyOp2
 70
     1
102
RTVSPropertyOp3
 70
     1
102
RTVSPropertyOp4
 70
     1
102
RTVSPropertyOp5
 70
     1
102
RTVSPropertyOp6
 70
     1
102
RTVSPropertyOp7
 70
     1
102
RTVSPropertyOp8
 70
     1
102
RTVSPropertyOp9
 70
     1
102
RTVSPropertyOp10
 70
     1
102
RTVSPropertyOp11
 70
     1
102
RTVSPropertyOp12
 70
     1
102
RTVSPropertyOp13
 70
     1
102
RTVSPropertyOp14
 70
     1
102
RTVSPropertyOp15
 70
     1
102
RTVSPropertyOp16
 70
     1
102
RTVSPropertyOp17
 70
     1
102
RTVSPropertyOp18
 70
     1
102
RTVSPropertyOp19
 70
     1
102
RTVSPropertyOp20
 70
     1
102
RTVSPropertyOp21
 70
     1
102
RTVSPropertyOp22
 70
     1
102
RTVSPropertyOp23
 70
     1
102
RTVSPropertyOp24
 70
     1
102
RTVSPropertyOp25
 70
     1
102
RTVSPropertyOp26
 70
     1
102
RTVSPropertyOp27
 70
     1
102
RTVSPropertyOp28
 70
     1
102
RTVSPropertyOp29
 70
     1
102
RTVSPropertyOp30
 70
     1
102
RTVSPropertyOp31
 70
     1
102
RTVSPropertyOp32
 70
     1
  0
XRECORD
  5
227
102
{ACAD_REACTORS
330
226
102
}
330
226
100
AcDbXrecord
280
     1
102
RTVSPropertyOp0
 70
     1
102
RTVSPropertyOp1
 70
     1
102
RTVSPropertyOp2
 70
     1
102
RTVSPropertyOp3
 70
     1
102
RTVSPropertyOp4
 70
     1
102
RTVSPropertyOp5
 70
     1
102
RTVSPropertyOp6
 70
     1
102
RTVSPropertyOp7
 70
     1
102
RTVSPropertyOp8
 70
     1
102
RTVSPropertyOp9
 70
     1
102
RTVSPropertyOp10
 70
     1
102
RTVSPropertyOp11
 70
     1
102
RTVSPropertyOp12
 70
     1
102
RTVSPropertyOp13
 70
     1
102
RTVSPropertyOp14
 70
     1
102
RTVSPropertyOp15
 70
     1
102
RTVSPropertyOp16
 70
     1
102
RTVSPropertyOp17
 70
     1
102
RTVSPropertyOp18
 70
     1
102
RTVSPropertyOp19
 70
     1
102
RTVSPropertyOp20
 70
     1
102
RTVSPropertyOp21
 70
     1
102
RTVSPropertyOp22
 70
     1
102
RTVSPropertyOp23
 70
     1
102
RTVSPropertyOp24
 70
     1
102
RTVSPropertyOp25
 70
     1
102
RTVSPropertyOp26
 70
     1
102
RTVSPropertyOp27
 70
     1
102
RTVSPropertyOp28
 70
     1
102
RTVSPropertyOp29
 70
     1
102
RTVSPropertyOp30
 70
     1
102
RTVSPropertyOp31
 70
     1
102
RTVSPropertyOp32
 70
     1
  0
XRECORD
  5
229
102
{ACAD_REACTORS
330
228
102
}
330
228
100
AcDbXrecord
280
     1
102
RTVSPropertyOp0
 70
     1
102
RTVSPropertyOp1
 70
     1
102
RTVSPropertyOp2
 70
     1
102
RTVSPropertyOp3
 70
     1
102
RTVSPropertyOp4
 70
     1
102
RTVSPropertyOp5
 70
     1
102
RTVSPropertyOp6
 70
     1
102
RTVSPropertyOp7
 70
     1
102
RTVSPropertyOp8
 70
     1
102
RTVSPropertyOp9
 70
     1
102
RTVSPropertyOp10
 70
     1
102
RTVSPropertyOp11
 70
     1
102
RTVSPropertyOp12
 70
     1
102
RTVSPropertyOp13
 70
     1
102
RTVSPropertyOp14
 70
     1
102
RTVSPropertyOp15
 70
     1
102
RTVSPropertyOp16
 70
     1
102
RTVSPropertyOp17
 70
     1
102
RTVSPropertyOp18
 70
     1
102
RTVSPropertyOp19
 70
     1
102
RTVSPropertyOp20
 70
     1
102
RTVSPropertyOp21
 70
     1
102
RTVSPropertyOp22
 70
     1
102
RTVSPropertyOp23
 70
     1
102
RTVSPropertyOp24
 70
     1
102
RTVSPropertyOp25
 70
     1
102
RTVSPropertyOp26
 70
     1
102
RTVSPropertyOp27
 70
     1
102
RTVSPropertyOp28
 70
     1
102
RTVSPropertyOp29
 70
     1
102
RTVSPropertyOp30
 70
     1
102
RTVSPropertyOp31
 70
     1
102
RTVSPropertyOp32
 70
     1
  0
XRECORD
  5
23D
102
{ACAD_REACTORS
330
23C
102
}
330
23C
100
AcDbXrecord
280
     1
102
RTVSPropertyOp0
 70
     1
102
RTVSPropertyOp1
 70
     1
102
RTVSPropertyOp2
 70
     1
102
RTVSPropertyOp3
 70
     1
102
RTVSPropertyOp4
 70
     1
102
RTVSPropertyOp5
 70
     1
102
RTVSPropertyOp6
 70
     1
102
RTVSPropertyOp7
 70
     1
102
RTVSPropertyOp8
 70
     1
102
RTVSPropertyOp9
 70
     1
102
RTVSPropertyOp10
 70
     1
102
RTVSPropertyOp11
 70
     1
102
RTVSPropertyOp12
 70
     1
102
RTVSPropertyOp13
 70
     1
102
RTVSPropertyOp14
 70
     1
102
RTVSPropertyOp15
 70
     1
102
RTVSPropertyOp16
 70
     1
102
RTVSPropertyOp17
 70
     1
102
RTVSPropertyOp18
 70
     1
102
RTVSPropertyOp19
 70
     1
102
RTVSPropertyOp20
 70
     1
102
RTVSPropertyOp21
 70
     1
102
RTVSPropertyOp22
 70
     1
102
RTVSPropertyOp23
 70
     1
102
RTVSPropertyOp24
 70
     1
102
RTVSPropertyOp25
 70
     1
102
RTVSPropertyOp26
 70
     1
102
RTVSPropertyOp27
 70
     1
102
RTVSPropertyOp28
 70
     1
102
RTVSPropertyOp29
 70
     1
102
RTVSPropertyOp30
 70
     1
102
RTVSPropertyOp31
 70
     1
102
RTVSPropertyOp32
 70
     1
  0
XRECORD
  5
233
102
{ACAD_REACTORS
330
232
102
}
330
232
100
AcDbXrecord
280
     1
102
RTVSPropertyOp0
 70
     1
102
RTVSPropertyOp1
 70
     1
102
RTVSPropertyOp2
 70
     1
102
RTVSPropertyOp3
 70
     1
102
RTVSPropertyOp4
 70
     1
102
RTVSPropertyOp5
 70
     1
102
RTVSPropertyOp6
 70
     1
102
RTVSPropertyOp7
 70
     1
102
RTVSPropertyOp8
 70
     1
102
RTVSPropertyOp9
 70
     1
102
RTVSPropertyOp10
 70
     1
102
RTVSPropertyOp11
 70
     1
102
RTVSPropertyOp12
 70
     1
102
RTVSPropertyOp13
 70
     1
102
RTVSPropertyOp14
 70
     1
102
RTVSPropertyOp15
 70
     1
102
RTVSPropertyOp16
 70
     1
102
RTVSPropertyOp17
 70
     1
102
RTVSPropertyOp18
 70
     1
102
RTVSPropertyOp19
 70
     1
102
RTVSPropertyOp20
 70
     1
102
RTVSPropertyOp21
 70
     1
102
RTVSPropertyOp22
 70
     1
102
RTVSPropertyOp23
 70
     1
102
RTVSPropertyOp24
 70
     1
102
RTVSPropertyOp25
 70
     1
102
RTVSPropertyOp26
 70
     1
102
RTVSPropertyOp27
 70
     1
102
RTVSPropertyOp28
 70
     1
102
RTVSPropertyOp29
 70
     1
102
RTVSPropertyOp30
 70
     1
102
RTVSPropertyOp31
 70
     1
102
RTVSPropertyOp32
 70
     1
  0
XRECORD
  5
23B
102
{ACAD_REACTORS
330
23A
102
}
330
23A
100
AcDbXrecord
280
     1
102
RTVSPropertyOp0
 70
     1
102
RTVSPropertyOp1
 70
     1
102
RTVSPropertyOp2
 70
     1
102
RTVSPropertyOp3
 70
     1
102
RTVSPropertyOp4
 70
     1
102
RTVSPropertyOp5
 70
     1
102
RTVSPropertyOp6
 70
     1
102
RTVSPropertyOp7
 70
     1
102
RTVSPropertyOp8
 70
     1
102
RTVSPropertyOp9
 70
     1
102
RTVSPropertyOp10
 70
     1
102
RTVSPropertyOp11
 70
     1
102
RTVSPropertyOp12
 70
     1
102
RTVSPropertyOp13
 70
     1
102
RTVSPropertyOp14
 70
     1
102
RTVSPropertyOp15
 70
     1
102
RTVSPropertyOp16
 70
     1
102
RTVSPropertyOp17
 70
     1
102
RTVSPropertyOp18
 70
     1
102
RTVSPropertyOp19
 70
     1
102
RTVSPropertyOp20
 70
     1
102
RTVSPropertyOp21
 70
     1
102
RTVSPropertyOp22
 70
     1
102
RTVSPropertyOp23
 70
     1
102
RTVSPropertyOp24
 70
     1
102
RTVSPropertyOp25
 70
     1
102
RTVSPropertyOp26
 70
     1
102
RTVSPropertyOp27
 70
     1
102
RTVSPropertyOp28
 70
     1
102
RTVSPropertyOp29
 70
     1
102
RTVSPropertyOp30
 70
     1
102
RTVSPropertyOp31
 70
     1
102
RTVSPropertyOp32
 70
     1
  0
ENDSEC
  0
EOF
